Misc Soundtrack

home > Misc Soundtrack

The Punisher Theme Tab

Misc Soundtrack

Difficulty: nolevelnolevel

by bombaXXX

tuner correct add songbook print version text version save to e-mail
chordsukulelecavacokeyboardtabbassdrumsharmonicsflute Guitar Pro
chords

The Punisher Theme

	  I made this myself because it sounds spot on and I couldn't find any good tabs so I made one here for other  
people to play.This is the Intro song in the main begining of Marvels "The Punisher", enjoy. 
(You have to play the last part in drop D) 


Intro 
                                      ~~~ 
e|---------------------------------------------------------------------------| 
B|---------------------------------------------------------------------------| 
G|--2--5--2--0--2--5--2------2--5--2-----------------------------------------| 
D|0-----------------------0-----------3-3-0----------------------------------| 
A|---------------------------------------------------------------------------| 
D|---------------------------------------------------------------------------| 

e|---------------------------------------------------------------------------| 
B|---------------------------------------------------------------------------| 
G|--2--5--2------------------------------------------------------------------| 
D|0--------------------------------------------------------------------------| 
A|---------------------------------------------------------------------------| 
D|-----------3---0-----------------------------------------------------------| 


************************************ 

| ~  Vibrato 

************************************ 
	  

Full key step upFull key step up
Half key step upHalf key step up
Half key step downHalf key step down
Full key step downFull key step down
Search Paypal
auto scroll beats size up size down change color hide chords drawings
tab show chords e-chords YouTube Clip e-chords hide all tabs e-chords go to top tab