Misc Computer Games

Skate Or Die 2 - Streets Level 1 Theme Tab

Misc Computer Games

Difficulty: nolevelnolevel

by educastilho

tuner correct add songbook print version text version save to e-mail
chordsukulelecavacokeyboardtabbassdrumsharmonicsflute Guitar Pro
close

there isn't a video lesson for this song

request
chords

Skate Or Die 2 - Streets Level 1 Theme

  		Skate Or Die 2 (NES) - Streets (Level 1 Theme) 

Gtr I (E A D G B E) - 'Sawtooth' 
Gtr II (E A D G B E) - 'Squarewave' 

    Q=150 
   4/4 
    Gtr I 
     Q.        Q.        E  E    Q.        Q.        E  E 
E||----------------------------|---------------------------| 
B||o---------------------------|---------------------------| 
G||------------10--------------|-----------12--------------| 
D||--12------------------12-10-|-12------------------12-10-| 
A||o---------------------------|---------------------------| 
E||----------------------------|---------------------------| 
 | 
 |   Gtr II 
 |    E   E  E  E   E  E  E  E    E   E  E  E   E  E  E  E 
E||--17--------17--------17-17-|-17--------17--------17-17-| 
B||o---------------------------|---------------------------| 
G||------14-14-----14-14-------|-----14-14-----14-14-------| 
D||----------------------------|---------------------------| 
A||o---------------------------|---------------------------| 
E||----------------------------|---------------------------| 


                              ~~ 
   Q.        Q     Q     E    W 
E|--------------------------|-------------------------| 
B|--------------------------|-------------------------| 
G|-----------10-------------|-------------------------| 
D|-12--------------12----10-|-------------------------| 
A|--------------------------|-12----------------------| 
E|--------------------------|-------------------------| 
 | 
 |  E   E  E  E  E  E  E  E    E  E  E  E  E  E  E  E 
E|-17--------17-------17-17-|-17-------17-------17-17-| 
B|--------------------------|-------------------------| 
G|-----14-14----14-14-------|----14-14----14-14-------| 
D|--------------------------|-------------------------| 
A|--------------------------|-------------------------| 
E|--------------------------|-------------------------| 


   Q.        Q.        E  E    Q.        Q.        E  E 
E|---------------------------|---------------------------| 
B|---------------------------|---------------------------| 
G|-----------10--------------|-----------12--------------| 
D|-12------------------12-10-|-12------------------12-10-| 
A|---------------------------|---------------------------| 
E|---------------------------|---------------------------| 
 | 
 |  E   E  E  E   E  E  E  E    E   E  E  E   E  E  E  E 
E|-17--------17--------17-17-|-17--------17--------17-17-| 
B|---------------------------|---------------------------| 
G|-----14-14-----14-14-------|-----14-14-----14-14-------| 
D|---------------------------|---------------------------| 
A|---------------------------|---------------------------| 
E|---------------------------|---------------------------| 


                             ~~ 
   E  Q     Q     E  E  E    W 
E|-------------------------|-------------------------| 
B|----10-------------------|-10----------------------| 
G|-12-------12----10----10-|-------------------------| 
D|-------------------12----|-------------------------| 
A|-------------------------|-------------------------| 
E|-------------------------|-------------------------| 
 | 
 |  E  E  E  E  E  E  E  E    E  E  E  E  E  E  E  E 
E|-17-------17-------17-17-|-17-------17-------17-17-| 
B|-------------------------|-------------------------| 
G|----14-14----14-14-------|----14-14----14-14-------| 
D|-------------------------|-------------------------| 
A|-------------------------|-------------------------| 
E|-------------------------|-------------------------| 


   Q.        Q.        E  E    Q.        Q.        E  E 
E|---------------------------|---------------------------| 
B|---------------------------|---------------------------| 
G|-----------10--------------|-----------12--------------| 
D|-12------------------12-10-|-12------------------12-10-| 
A|---------------------------|---------------------------| 
E|---------------------------|---------------------------| 
 | 
 |  E   E  E  E   E  E  E  E    E   E  E  E   E  E  E  E 
E|-17--------17--------17-17-|-17--------17--------17-17-| 
B|---------------------------|---------------------------| 
G|-----14-14-----14-14-------|-----14-14-----14-14-------| 
D|---------------------------|---------------------------| 
A|---------------------------|---------------------------| 
E|---------------------------|---------------------------| 


                              ~~ 
   Q.        Q     Q     E    W 
E|--------------------------|-------------------------| 
B|--------------------------|-------------------------| 
G|-----------10-------------|-------------------------| 
D|-12--------------12----10-|-------------------------| 
A|--------------------------|-12----------------------| 
E|--------------------------|-------------------------| 
 | 
 |  E   E  E  E  E  E  E  E    E  E  E  E  E  E  E  E 
E|-17--------17-------17-17-|-17-------17-------17-17-| 
B|--------------------------|-------------------------| 
G|-----14-14----14-14-------|----14-14----14-14-------| 
D|--------------------------|-------------------------| 
A|--------------------------|-------------------------| 
E|--------------------------|-------------------------| 


   Q.        Q.        E  E    Q.        Q.        E  E 
E|---------------------------|---------------------------| 
B|---------------------------|---------------------------| 
G|-----------10--------------|-----------12--------------| 
D|-12------------------12-10-|-12------------------12-10-| 
A|---------------------------|---------------------------| 
E|---------------------------|---------------------------| 
 | 
 |  E   E  E  E   E  E  E  E    E   E  E  E   E  E  E  E 
E|-17--------17--------17-17-|-17--------17--------17-17-| 
B|---------------------------|---------------------------| 
G|-----14-14-----14-14-------|-----14-14-----14-14-------| 
D|---------------------------|---------------------------| 
A|---------------------------|---------------------------| 
E|---------------------------|---------------------------| 


                             ~~ 
   E  Q     Q     E  E  E    W 
E|-------------------------|-------------------------| 
B|----10-------------------|-------------------------| 
G|-12-------12----10----10-|-------------------------| 
D|-------------------12----|-12----------------------| 
A|-------------------------|-------------------------| 
E|-------------------------|-------------------------| 
 | 
 |  E  E  E  E  E  E  E  E    E  E  E  E  E  E  E  E 
E|-17-------17-------17-17-|-17-------17-------17-17-| 
B|-------------------------|-------------------------| 
G|----14-14----14-14-------|----14-14----14-14-------| 
D|-------------------------|-------------------------| 
A|-------------------------|-------------------------| 
E|-------------------------|-------------------------| 


      ~~ 
   E  H           +E   Q       Q.        Q.        E  E 
E|---------------------------|---------------------------| 
B|---------------------11----|-10------------------------| 
G|-10-12----------(12)-------|-----------12--------10----| 
D|---------------------------|------------------------12-| 
A|---------------------------|---------------------------| 
E|---------------------------|---------------------------| 
 | 
 |  E  E  E  E  E   E   E  E    E   E  E  E   E  E  E  E 
E|-18-------18---------18-18-|-18--------18--------18-18-| 
B|---------------------------|---------------------------| 
G|----15-15----15--15--------|-----15-15-----15-15-------| 
D|---------------------------|---------------------------| 
A|---------------------------|---------------------------| 
E|---------------------------|---------------------------| 


      ~~                                 ~~ 
   E  H           +E   Q       Q.        H           +E 
E|---------------------------|----------------------------| 
B|---------------------11----|-11--------10----------(10)-| 
G|-10-12----------(12)-------|----------------------------| 
D|---------------------------|----------------------------| 
A|---------------------------|----------------------------| 
E|---------------------------|----------------------------| 
 | 
 |  E  E  E  E  E   E   E  E    E   E  E  E  E  E  E   E 
E|-18-------18---------18-18-|-17--------17-------17--17--| 
B|---------------------------|----------------------------| 
G|----15-15----15--15--------|-----14-14----14-14---------| 
D|---------------------------|----------------------------| 
A|---------------------------|----------------------------| 
E|---------------------------|----------------------------| 


      ~~ 
   E  H           +E   Q       Q.        Q.        E  E 
E|---------------------------|---------------------------| 
B|---------------------11----|-10------------------------| 
G|-10-12----------(12)-------|-----------12--------10----| 
D|---------------------------|------------------------13-| 
A|---------------------------|---------------------------| 
E|---------------------------|---------------------------| 
 | 
 |  E  E  E  E  E   E   E  E    E   E  E  E   E  E  E  E 
E|-18-------18---------18-18-|-18--------18--------18-18-| 
B|---------------------------|---------------------------| 
G|----15-15----15--15--------|-----15-15-----15-15-------| 
D|---------------------------|---------------------------| 
A|---------------------------|---------------------------| 
E|---------------------------|---------------------------| 


   ~~~~~~~~~~~~~~~~~~~~~~~~~~~~~~ 
   W                         +W 
E|-------------------------|---------------------------| 
B|-------------------------|---------------------------| 
G|-------------------------|---------------------------| 
D|-12----------------------|-(12)----------------------| 
A|-------------------------|---------------------------| 
E|-------------------------|---------------------------| 
 | 
 |  E  E  E  E  E  E  E  E     E   E  E  E  E  E  E  E 
E|-18-------18-------18-18-|--18--------18-------18-18-| 
B|-------------------------|---------------------------| 
G|----15-15----15-15-------|------15-15----15-15-------| 
D|-------------------------|---------------------------| 
A|-------------------------|---------------------------| 
E|-------------------------|---------------------------| 


      ~~ 
   E  H           +E   Q       Q.        Q.        E  E 
E|---------------------------|---------------------------| 
B|---------------------11----|-13--------11--------10----| 
G|-10-12----------(12)-------|------------------------12-| 
D|---------------------------|---------------------------| 
A|---------------------------|---------------------------| 
E|---------------------------|---------------------------| 
 | 
 |  E  E  E  E  E   E   E  E    E   E  E  E   E  E  E  E 
E|-18-------18---------18-18-|-18--------18--------18-18-| 
B|---------------------------|---------------------------| 
G|----15-15----15--15--------|-----15-15-----15-15-------| 
D|---------------------------|---------------------------| 
A|---------------------------|---------------------------| 
E|---------------------------|---------------------------| 


      ~~ 
   E  H           +E   Q       Q.        Q.        Q 
E|---------------------13----|-11--------10--------------| 
B|-11-13----------(13)-------|---------------------13----| 
G|---------------------------|---------------------------| 
D|---------------------------|---------------------------| 
A|---------------------------|---------------------------| 
E|---------------------------|---------------------------| 
 | 
 |  E  E  E  E  E   E   E  E    E   E  E  E   E  E  E  E 
E|-17-------17---------17-17-|-17--------17--------17-17-| 
B|---------------------------|---------------------------| 
G|----14-14----14--14--------|-----14-14-----14-14-------| 
D|---------------------------|---------------------------| 
A|---------------------------|---------------------------| 
E|---------------------------|---------------------------| 


      ~~ 
   E  H           +E   Q       Q.        Q.        E  E 
E|-10-11----------(11)-15----|-15--------13--------11-13-| 
B|---------------------------|---------------------------| 
G|---------------------------|---------------------------| 
D|---------------------------|---------------------------| 
A|---------------------------|---------------------------| 
E|---------------------------|---------------------------| 
 | 
 |  E  E  E  E  E   E   E  E    E   E  E  E   E  E  E  E 
E|-18-------18---------18-18-|-18--------18--------18-18-| 
B|---------------------------|---------------------------| 
G|----15-15----15--15--------|-----15-15-----15-15-------| 
D|---------------------------|---------------------------| 
A|---------------------------|---------------------------| 
E|---------------------------|---------------------------| 


   ~~~~~~~~~~~~~~~~~~~~~~~~~~~~~~ 
   W                         +W 
E|-15----------------------|-(15)----------------------| 
B|-------------------------|---------------------------| 
G|-------------------------|---------------------------| 
D|-------------------------|---------------------------| 
A|-------------------------|---------------------------| 
E|-------------------------|---------------------------| 
 | 
 |  E  E  E  E  E  E  E  E     E   E  E  E  E  E  E  E 
E|-15-------15-------15-15-|--15--------15-------15-15-| 
B|-------------------------|---------------------------| 
G|----12-12----12-12-------|------12-12----12-12-------| 
D|-------------------------|---------------------------| 
A|-------------------------|---------------------------| 
E|-------------------------|---------------------------| 


          ~~~~~~~~~~~~~~~~~~~~~~~~~ 
   E  E  +H.                   +H            S  S  S  S  S  S  S  S 
E|---------------------------|---------------------------------------| 
B|---------------------------|---------------13-11----11-13-11----11-| 
G|---------------------------|---------------------12----------12----| 
D|-12-13-(13)----------------|-(13)----------------------------------| 
A|---------------------------|---------------------------------------| 
E|---------------------------|---------------------------------------| 
 | 
 |  E  E   E   E  E  E  E  E     E   E  E  E  E     E     E     E 
E|-15---------15-------15-15-|--15--------15-------------15----15----| 
B|---------------------------|---------------------------------------| 
G|----12--12-----12-12-------|------12-12----12----12----------------| 
D|---------------------------|---------------------------------------| 
A|---------------------------|---------------------------------------| 
E|---------------------------|---------------------------------------| 


          ~~~~~~~~~~~~~~~~~~~~~~~~~ 
   E  E  +H.                   +H            S  S  S  S  S  S  S  S 
E|---------------------------|---------------18-17-15-17-18-17-15-17--| 
B|---------------------------|----------------------------------------| 
G|-10-12-(12)----------------|-(12)-----------------------------------| 
D|---------------------------|----------------------------------------| 
A|---------------------------|----------------------------------------| 
E|---------------------------|----------------------------------------| 
 | 
 |  E  E   E   E  E  E  E  E     E   E  E  E  E     E     E     E 
E|-15---------15-------15-15-|--15--------15-------------15----15-----| 
B|---------------------------|----------------------------------------| 
G|----12--12-----12-12-------|------12-12----12----12-----------------| 
D|---------------------------|----------------------------------------| 
A|---------------------------|----------------------------------------| 
E|---------------------------|----------------------------------------| 


          ~~~~~~~~~~~~~~~~~~~~~~~~~ 
   E  E  +H.                   +H            S  S  S  S  S  S  S  S 
E|---------------------------|---------------15----------15----------| 
B|-10-11-(11)----------------|-(11)-------------18-15-18----18-15-18-| 
G|---------------------------|---------------------------------------| 
D|---------------------------|---------------------------------------| 
A|---------------------------|---------------------------------------| 
E|---------------------------|---------------------------------------| 
 | 
 |  E  E   E   E  E  E  E  E     E   E  E  E  E     E     E     E 
E|-15---------15-------15-15-|--15--------15-------------15----15----| 
B|---------------------------|---------------------------------------| 
G|----12--12-----12-12-------|------12-12----12----12----------------| 
D|---------------------------|---------------------------------------| 
A|---------------------------|---------------------------------------| 
E|---------------------------|---------------------------------------| 


          ~~~~ 
   E  E  +H.                   S  S  S  S  S  S  S  S  S  S  S  S  S  S  S  S 
E|---------------------------|-13----------13----------13----------------------| 
B|-11-13-(13)----------------|----16-13-16----16-13-16----16-13-16-13----------| 
G|---------------------------|----------------------------------------15-14----| 
D|---------------------------|----------------------------------------------15-| 
A|---------------------------|-------------------------------------------------| 
E|---------------------------|-------------------------------------------------| 
 | 
 |  E  E   E   E  E  E  E  E    E     E     E     E     E     E     E     E 
E|-13---------13-------13-13-|-13----------------13----------------13----13----| 
B|---------------------------|-------------------------------------------------| 
G|----10--10-----10-10-------|-------10----10----------10----10----------------| 
D|---------------------------|-------------------------------------------------| 
A|---------------------------|-------------------------------------------------| 
E|---------------------------|-------------------------------------------------| 


          ~~~~ 
   E  E  +H.                   S  S  S  S  S  S  S  S  S  S  S  S  S  S  S  S 
E|---------------------------|-------------------------------------------------| 
B|---------------------------|-13-11----11-13-11----11-13-11----11-------------| 
G|---------------------------|-------12----------12----------12----14-12-10----| 
D|-12-13-(13)----------------|----------------------------------------------12-| 
A|---------------------------|-------------------------------------------------| 
E|---------------------------|-------------------------------------------------| 
 | 
 |  E  E   E   E  E  E  E  E    E     E     E     E     E     E     E     E 
E|-15---------15-------15-15-|-15----------------15----------------15----15----| 
B|---------------------------|-------------------------------------------------| 
G|----12--12-----12-12-------|-------12----12----------12----12----------------| 
D|---------------------------|-------------------------------------------------| 
A|---------------------------|-------------------------------------------------| 
E|---------------------------|-------------------------------------------------| 


          ~~~~ 
   E  E  +H.                   S  S  S  S  S  S  S  S  S  S  S  S  S  S  S  S 
E|---------------------------|----------------------------------------------------| 
B|---------------------------|-11-10----10-11-10----10-11-10----------------------| 
G|-10-12-(12)----------------|-------12----------12----------12-10----------------| 
D|---------------------------|-------------------------------------13-12-10-------| 
A|---------------------------|----------------------------------------------13----| 
E|---------------------------|----------------------------------------------------| 
 | 
 |  E  E   E   E  E  E  E  E    E     E     E     E     E     E     E     E 
E|-15---------15-------15-15-|-15----------------15----------------15----15-------| 
B|---------------------------|----------------------------------------------------| 
G|----12--12-----12-12-------|-------12----12----------12----12-------------------| 
D|---------------------------|----------------------------------------------------| 
A|---------------------------|----------------------------------------------------| 
E|---------------------------|----------------------------------------------------| 


          ~~~~ 
   E  E  +H.                   S  S  S  S  S  S  S  S  S  S  S  S  S  S  S  S 
E|---------------------------|-15----------15----------15----------------------| 
B|-10-11-(11)----------------|----18-15-18----18-15-18----18-15----------------| 
G|---------------------------|----------------------------------17-15-14----14-| 
D|---------------------------|-------------------------------------------15----| 
A|---------------------------|-------------------------------------------------| 
E|---------------------------|-------------------------------------------------| 
 | 
 |  E  E   E   E  E  E  E  E    E     E     E     E     E     E     E     E 
E|-15---------15-------15-15-|-15----------------15----------------15----15----| 
B|---------------------------|-------------------------------------------------| 
G|----12--12-----12-12-------|-------12----12----------12----12----------------| 
D|---------------------------|-------------------------------------------------| 
A|---------------------------|-------------------------------------------------| 
E|---------------------------|-------------------------------------------------| 


          ~~~~ 
   E  E  +H.                   S  S  S  S  S  S  S  S  S  S  S  S  S  S  S  S 
E|-15-17-(17)----------------|-17----------17----------17-------------------------| 
B|---------------------------|----20-17-20----20-17-20----20-17-20-17-------------| 
G|---------------------------|----------------------------------------19-17-------| 
D|---------------------------|----------------------------------------------19----| 
A|---------------------------|----------------------------------------------------| 
E|---------------------------|----------------------------------------------------| 
 | 
 |  E  E   E   E  E  E  E  E    E     E     E     E     E     E     E     E 
E|-17---------17-------17-17-|-17----------------17----------------17----17-------| 
B|---------------------------|----------------------------------------------------| 
G|----14--14-----14-14-------|-------14----14----------14----14-------------------| 
D|---------------------------|----------------------------------------------------| 
A|---------------------------|----------------------------------------------------| 
E|---------------------------|----------------------------------------------------| 


   Q.        Q.        E  E    Q.        Q.        E  E 
E|-----------13--------------|-----------15--------------| 
B|-15------------------15-13-|-15------------------15-13-| 
G|---------------------------|---------------------------| 
D|---------------------------|---------------------------| 
A|---------------------------|---------------------------| 
E|---------------------------|---------------------------| 
 | 
 |  E   E  E  E   E  E  E  E    E   E  E  E   E  E  E  E 
E|-17--------17--------17-17-|-17--------17--------17-17-| 
B|---------------------------|---------------------------| 
G|-----14-14-----14-14-------|-----14-14-----14-14-------| 
D|---------------------------|---------------------------| 
A|---------------------------|---------------------------| 
E|---------------------------|---------------------------| 


                              ~~ 
   Q.        Q     Q     E    W 
E|-----------13-------------|-------------------------| 
B|-15--------------15----13-|-------------------------| 
G|--------------------------|-14----------------------| 
D|--------------------------|-------------------------| 
A|--------------------------|-------------------------| 
E|--------------------------|-------------------------| 
 | 
 |  E   E  E  E  E  E  E  E    E  E  E  E  E  E  E  E 
E|-17--------17-------17-17-|-17-------17-------17-17-| 
B|--------------------------|-------------------------| 
G|-----14-14----14-14-------|----14-14----14-14-------| 
D|--------------------------|-------------------------| 
A|--------------------------|-------------------------| 
E|--------------------------|-------------------------| 


   Q.        Q.        E  E    Q.        Q.        E  E 
E|-----------13--------------|-----------15--------------| 
B|-15------------------15-13-|-15------------------15-13-| 
G|---------------------------|---------------------------| 
D|---------------------------|---------------------------| 
A|---------------------------|---------------------------| 
E|---------------------------|---------------------------| 
 | 
 |  E   E  E  E   E  E  E  E    E   E  E  E   E  E  E  E 
E|-17--------17--------17-17-|-17--------17--------17-17-| 
B|---------------------------|---------------------------| 
G|-----14-14-----14-14-------|-----14-14-----14-14-------| 
D|---------------------------|---------------------------| 
A|---------------------------|---------------------------| 
E|---------------------------|---------------------------| 


                             ~~ 
   E  Q     Q     E  E  E    W 
E|-15-17----15----13----13-|-17----------------------| 
B|-------------------15----|-------------------------| 
G|-------------------------|-------------------------| 
D|-------------------------|-------------------------| 
A|-------------------------|-------------------------| 
E|-------------------------|-------------------------| 
 | 
 |  E  E  E  E  E  E  E  E    E  E  E  E  E  E  E  E 
E|-17-------17-------17-17-|-17-------17-------17-17-| 
B|-------------------------|-------------------------| 
G|----14-14----14-14-------|----14-14----14-14-------| 
D|-------------------------|-------------------------| 
A|-------------------------|-------------------------| 
E|-------------------------|-------------------------| 


   Q.        Q.        E  E    Q.        Q.        E  E 
E|-----------13--------------|-----------15--------------| 
B|-15------------------15-13-|-15------------------15-13-| 
G|---------------------------|---------------------------| 
D|---------------------------|---------------------------| 
A|---------------------------|---------------------------| 
E|---------------------------|---------------------------| 
 | 
 |  E   E  E  E   E  E  E  E    E   E  E  E   E  E  E  E 
E|-17--------17--------17-17-|-17--------17--------17-17-| 
B|---------------------------|---------------------------| 
G|-----14-14-----14-14-------|-----14-14-----14-14-------| 
D|---------------------------|---------------------------| 
A|---------------------------|---------------------------| 
E|---------------------------|---------------------------| 


                              ~~ 
   Q.        Q     Q     E    W 
E|-----------13-------------|-------------------------| 
B|-15--------------15----13-|-------------------------| 
G|--------------------------|-14----------------------| 
D|--------------------------|-------------------------| 
A|--------------------------|-------------------------| 
E|--------------------------|-------------------------| 
 | 
 |  E   E  E  E  E  E  E  E    E  E  E  E  E  E  E  E 
E|-17--------17-------17-17-|-17-------17-------17-17-| 
B|--------------------------|-------------------------| 
G|-----14-14----14-14-------|----14-14----14-14-------| 
D|--------------------------|-------------------------| 
A|--------------------------|-------------------------| 
E|--------------------------|-------------------------| 


   Q.        Q.        E  E    Q.        Q.        E  E 
E|-----------13--------------|-----------15--------------| 
B|-15------------------15-13-|-15------------------15-13-| 
G|---------------------------|---------------------------| 
D|---------------------------|---------------------------| 
A|---------------------------|---------------------------| 
E|---------------------------|---------------------------| 
 | 
 |  E   E  E  E   E  E  E  E    E   E  E  E   E  E  E  E 
E|-17--------17--------17-17-|-17--------17--------17-17-| 
B|---------------------------|---------------------------| 
G|-----14-14-----14-14-------|-----14-14-----14-14-------| 
D|---------------------------|---------------------------| 
A|---------------------------|---------------------------| 
E|---------------------------|---------------------------| 


                             ~~ 
   E  Q     Q     E  E  E    W 
E|-15-17----15----15-13----|-------------------------| 
B|----------------------13-|-15----------------------| 
G|-------------------------|-------------------------| 
D|-------------------------|-------------------------| 
A|-------------------------|-------------------------| 
E|-------------------------|-------------------------| 
 | 
 |  E  E  E  E  E  E  E  E    E  E  E  E  E  E  E  E 
E|-17-------17-------17-17-|-17-------17-------17-17-| 
B|-------------------------|-------------------------| 
G|----14-14----14-14-------|----14-14----14-14-------| 
D|-------------------------|-------------------------| 
A|-------------------------|-------------------------| 
E|-------------------------|-------------------------| 


                               ~~~~~~~~~~~~~~~~~~~~~~~~ 
   Q.        Q.        Q       W 
E|---------------------------|-------------------------| 
B|---------------------------|-------------------------| 
G|-10---------9--------------|--7----------------------| 
D|---------------------10----|-------------------------| 
A|---------------------------|-------------------------| 
E|---------------------------|-------------------------| 
 | 
 |  E   E  E  E   E  E  E  E    E  E  E  E  E  E  E  E 
E|---------------------------|-------------------------| 
B|-15--------15--------15-15-|-15-------15-------15-15-| 
G|---------------------------|-------------------------| 
D|-----12-12-----12-12-------|----12-12----12-12-------| 
A|---------------------------|-------------------------| 
E|---------------------------|-------------------------| 


 ~~~~~~~~~~~~~~~~~~~~~~~~~~~~~~~~ 
   W                         +W 
E|-10----------------------|-(10)----------------------| 
B|-------------------------|---------------------------| 
G|-------------------------|---------------------------| 
D|-------------------------|---------------------------| 
A|-------------------------|---------------------------| 
E|-------------------------|---------------------------| 
 | 
 |  E  E  E  E  E  E  E  E     E   E  E  E  E  E  E  E 
E|-------------------------|---------------------------| 
B|-15-------15-------15-15-|--15--------15-------15-15-| 
G|-------------------------|---------------------------| 
D|----12-12----12-12-------|------12-12----12-12-------| 
A|-------------------------|---------------------------| 
E|-------------------------|---------------------------| 


                               ~~~~~~~~~~~~~~~~~~~~~~~~ 
   Q.        Q.        Q       W 
E|---------------------------|-------------------------| 
B|----------------------8----|--8----------------------| 
G|-10---------9--------------|-------------------------| 
D|---------------------------|-------------------------| 
A|---------------------------|-------------------------| 
E|---------------------------|-------------------------| 
 | 
 |  E   E  E  E   E  E  E  E    E  E  E  E  E  E  E  E 
E|---------------------------|-------------------------| 
B|-15--------15--------15-15-|-15-------15-------15-15-| 
G|---------------------------|-------------------------| 
D|-----12-12-----12-12-------|----12-12----12-12-------| 
A|---------------------------|-------------------------| 
E|---------------------------|-------------------------| 


 ~~~~~~~~~~~~~~~~~~~~~~~~~~~~~~~~ 
   W                         +W 
E|-15----------------------|-(15)----------------------| 
B|-------------------------|---------------------------| 
G|-------------------------|---------------------------| 
D|-------------------------|---------------------------| 
A|-------------------------|---------------------------| 
E|-------------------------|---------------------------| 
 | 
 |  E  E  E  E  E  E  E  E     E   E  E  E  E  E  E  E 
E|-------------------------|---------------------------| 
B|-15-------15-------15-15-|--15--------15-------15-15-| 
G|-------------------------|---------------------------| 
D|----12-12----12-12-------|------12-12----12-12-------| 
A|-------------------------|---------------------------| 
E|-------------------------|---------------------------| 


                               ~~~~~~~~~~~~~~~~~~~~~~~~ 
   Q.        Q.        Q       W 
E|---------------------------|-------------------------| 
B|---------------------------|-------------------------| 
G|-10---------9--------------|--7----------------------| 
D|---------------------10----|-------------------------| 
A|---------------------------|-------------------------| 
E|---------------------------|-------------------------| 
 | 
 |  E   E  E  E   E  E  E  E    E  E  E  E  E  E  E  E 
E|---------------------------|-------------------------| 
B|-15--------15--------15-15-|-15-------15-------15-15-| 
G|---------------------------|-------------------------| 
D|-----12-12-----12-12-------|----12-12----12-12-------| 
A|---------------------------|-------------------------| 
E|---------------------------|-------------------------| 


 ~~~~~~~~~~~~~~~~~~~~~~~~~~~~~~~~ 
   W                         +W 
E|-10----------------------|-(10)----------------------| 
B|-------------------------|---------------------------| 
G|-------------------------|---------------------------| 
D|-------------------------|---------------------------| 
A|-------------------------|---------------------------| 
E|-------------------------|---------------------------| 
 | 
 |  E  E  E  E  E  E  E  E     E   E  E  E  E  E  E  E 
E|-------------------------|---------------------------| 
B|-15-------15-------15-15-|--15--------15-------15-15-| 
G|-------------------------|---------------------------| 
D|----12-12----12-12-------|------12-12----12-12-------| 
A|-------------------------|---------------------------| 
E|-------------------------|---------------------------| 


                               ~~~~~~~~~~~~~~~~~~~~~~~~ 
   Q.        Q.        Q       W 
E|---------------------------|-------------------------| 
B|---------------------------|-------------------------| 
G|---------------------------|-------------------------| 
D|-12--------10--------------|-12----------------------| 
A|---------------------12----|-------------------------| 
E|---------------------------|-------------------------| 
 | 
 |  E   E  E  E   E  E  E  E    E  E  E  E  E  E  E  E 
E|---------------------------|-------------------------| 
B|-15--------15--------15-15-|-15-------15-------15-15-| 
G|---------------------------|-------------------------| 
D|-----12-12-----12-12-------|----12-12----12-12-------| 
A|---------------------------|-------------------------| 
E|---------------------------|-------------------------| 


 ~~~~~~~~~~~~~~~~~~~~~~~~~~~~~~~~ 
   W                         +W 
E|-------------------------|----------------------------|| 
B|-15----------------------|-(15)----------------------o|| 
G|-------------------------|----------------------------|| 
D|-------------------------|----------------------------|| 
A|-------------------------|---------------------------o|| 
E|-------------------------|----------------------------|| 
 | 
 |  E  E  E  E  E  E  E  E     E   E  E  E  E  E  E  E 
E|-------------------------|----------------------------|| 
B|-15-------15-------15-15-|--15--------15-------15-15-o|| 
G|-------------------------|----------------------------|| 
D|----12-12----12-12-------|------12-12----12-12--------|| 
A|-------------------------|---------------------------o|| 
E|-------------------------|----------------------------|| 


Duration Legend 
--------------- 
W - whole; H - half; Q - quarter; E - 8th; S - 16th; T - 32nd; X - 64th; a - acciaccatura 
+ - note tied to previous; . - note dotted; .. - note double dotted 
Uncapitalized letters represent notes that are staccato (1/2 duration) 
Irregular groupings are notated above the duration line 
Duration letters will always appear directly above the note/fret number it represents the 
duration for.  Duration letters with no fret number below them represent rests.  Multi- 
bar rests are notated in the form Wxn, where n is the number of bars to rest for.  Low 
melody durations appear below the staff 

Tablature Legend 
---------------- 
 ~   - vibrato 

Misc Legend 
----------- 
 |  - bar 
||  - double bar 
||o - repeat start 
o|| - repeat end 
Tempo markers -  = BPM(8/16=s8/s16), where s8 = swing 8ths, s16 = swing 16ths 
	  

Full key step upFull key step up
Half key step upHalf key step up
Half key step downHalf key step down
Full key step downFull key step down
Search Paypal
auto scroll beats size up size down change color hide chords drawings
tab show chords e-chords YouTube Clip e-chords hide all tabs e-chords go to top tab

share with facebook