Misc Computer Games

home > Misc Computer Game...

Pokemon - Blue/red - Lavender Town Tab

Misc Computer Games

Difficulty: ExpertExpert

by fernsantana

tuner correct add songbook print version text version save to e-mail
chordsukulelecavacokeyboardtabbassdrumsharmonicsflute Guitar Pro
chords

Pokemon - Blue/red - Lavender Town

  		

Guitar 1: 
|----15--20--15--|----15--20--15--|----15--20--15--|----15--20--15--| repeats throughout song 
|13--------------|13--------------|13--------------|13--------------| 
|----------------|----------------|----------------|---------------*| 
|----------------|----------------|----------------|---------------*| 
|----------------|----------------|----------------|----------------| 
|----------------|----------------|----------------|----------------| 

Guitar 2  keep your pick around the end of the fretboard, over the fret an octave above  
the note played for a square sound 
|----------------|----------------|------------7---|----------------| 
|8-------8-------|5-------5-------|8---7---5-------|----------------| 
|----------------|----------------|----------------|5-------5-------| 
|----------------|----------------|----------------|----------------| 
|----------------|----------------|----------------|----------------| 
|----------------|----------------|----------------|----------------| 

|----------------|----------------|------------7---|8-------8-------| 
|8-------8-------|5-------5-------|8---7---5-------|----------------| 
|----------------|----------------|----------------|----------------| 
|----------------|----------------|----------------|----------------| 
|----------------|----------------|----------------|----------------| 
|----------------|----------------|----------------|----------------| 

|----------------|----------------|------------7---|----------------| 
|8-------8-------|5-------5-------|8---7---5-------|----------------| 
|----------------|----------------|----------------|5-------5-------| 
|----------------|----------------|----------------|----------------| 
|----------------|----------------|----------------|----------------| 
|----------------|----------------|----------------|----------------| 

|----------------|----------------|------------7---|8-------8-------| 
|8-------8-------|5-------5-------|8b--7---5-------|----------------| 
|----------------|----------------|----------------|---------------*| 
|----------------|----------------|----------------|---------------*| 
|----------------|----------------|----------------|----------------| 
|----------------|----------------|----------------|----------------| 

Guitar 3  keep the pick as close to the bridge as possible for a very rectangular sound 
|----------------|----------------|----------------|------------0---| 
|5---------------|3---------------|1---------------|5---3---1-------| 
|----------------|----------------|----------------|---------------*|x3 
|----------------|----------------|----------------|---------------*| 
|----------------|----------------|----------------|----------------| 
|----------------|----------------|----------------|----------------| 

|20--15------15--|20--15------15--|24--22--20--19--|----5-------7---| 
|--------13------|--------13------|----------------|--------5-------| 
|----------------|----------------|----------------|7---------------| 
|----------------|----------------|----------------|----------------| 
|----------------|----------------|----------------|----------------| 
|----------------|----------------|----------------|-------allrepeat|  
	  

Search Paypal
auto scroll beats size up size down change color hide chords drawings
tab show chords e-chords YouTube Clip e-chords hide all tabs e-chords go to top tab