Misc Computer Games

Fable - Temple Of Light

Misc Computer Games

tabs

by  ANG-LETRA

save to print version add songbook text version e-mail correct tuner
chordsukulelecavacokeyboardtabbassdrumsharmonicaflute Guitar Pro
close

there isn't a video lesson for this song

chords

Fable - Temple Of Light

	  		
Verse 
Db|-------------5-----8----|-------------5-----8----|-------------0-----3----|-------------0-----3----| 
Ab|----------5-------------|----------5-------------|----------0-------------|----------0-------------| 
E |-------5----------------|-------5----------------|-------0----------------|-------0----------------| 
B |----7-------------------|----7-------------------|----2-------------------|----2-------------------| 
Gb|-0----------------------|-0----------------------|------------------------|------------------------| 
Db|------------------------|------------------------|-0----------------------|-0----------------------| 

Db|-------------5-----8----|-------------5-----8----|-------------0-----3----|-------------0-----3----| 
Ab|----------5-------------|----------5-------------|----------0-------------|----------0-------------| 
E |-------5--------5-------|-------5--------5-------|-------0--------0-------|-------0--------0-------| 
B |----7-------------------|----7-------------------|----2-------------------|----2-------------------| 
Gb|-0----------------------|-0----------------------|------------------------|------------------------| 
Db|------------------------|------------------------|-0----------------------|-0----------------------| 

                                                                                                     x2 
Db|-5-----------5-----8--5-|-7--------5--2-----8----|-1--------0--1-----3--0-|-1--------0--3-----3--0-| 
Ab|----------5-------------|----------5--5--------5-|----------0--5-----1----|----------0--5-----0----| 
E |-------5-----------5----|-------5--------2--5----|-------0--------0-------|-------0-----7-----0----| 
B |----7-----------7-------|----7-------------------|----2-------------------|----2-----------2-------| 
Gb|-0-----------0----------|-0-----------0----------|------------------------|------------------------| 
Db|------------------------|------------------------|-0-----------0----------|-0-----------0----------| 

                                                                                                     x2 
Db|----0--1--5--8-----7--5-|----0--1--5--8-----7--5-|----------5--8-----7--5-|----------0--3-----3--0-| 
Ab|-1--------5--5-----5--5-|-1--------5--7-----8--5-|----0--1--5--8-----7--5-|----0--1-----7-----7----| 
E |------------------------|------------------------|-2----------------------|-2----------------------| 
B |------------------------|------------------------|------------------------|------------------------| 
Gb|-3----------------------|-3----------------------|-0----------------------|-0----------------------| 
Db|------------------------|------------------------|------------------------|------------------------| 


Db|-------------5-----8----|------------------------|-------------8-----7----|------------------------| 
Ab|----------5-------------|----------5--7-----8----|----------5-------------|----------5--7-----8----| 
E |-------5--------5-----5-|-------5--------5-----5-|-------5--------5-----5-|-------5--------5-----5-| 
B |----7-------------------|----7-------------------|----7-------------------|----7-------------------| 
Gb|-0----------------------|-0----------------------|-0----------------------|-0----------------------| 
Db|------------------------|------------------------|------------------------|------------------------| 

                                                                                                     x2 
Db|-5-----------8-----7--5-|-5-----------8-----7--5-|-0-----------3-----2--0-|-0-----------3-----2--0-| 
Ab|----------5-------------|----------5-------------|----------0-------------|----------0-------------| 
E |-------5--------5--5----|-------5--------5--5----|-------0--------0--0----|-------0----------------| 
B |----7--------7----------|----7--------7----------|----2--------2----------|----2-----------0--0----| 
Gb|-0----------------------|-0----------------------|------------------------|-------------4----------| 
Db|------------------------|------------------------|-0----------------------|-0--------------------3-| 

                                                                                                     x2 
Db|----0--1--5--8-----7--5-|----0--1--5--8-----7--5-|----------5--8-----7--5-|----------0--3-----3--0-| 
Ab|-1--------5--5-----5--5-|-1--------5--7-----8--5-|----0--1--5--8-----7--5-|----0--1-----7-----7----| 
E |------------------------|------------------------|-2----------------------|-2----------------------| 
B |------------------------|------------------------|------------------------|------------------------| 
Gb|-3----------------------|-3----------------------|-0----------------------|-0----------------------| 
Db|------------------------|------------------------|------------------------|------------------------| 


************************************ 
| b  Bend 
************************************ 
		  

auto scroll beats size up size down change color hide chords drawings
tab show chords e-chords YouTube Clip e-chords hide all tabs e-chords go to top tab

share