Misc Computer Games

Dark Souls 3 - Fireline Shrine

Misc Computer Games

tabs

by  IAGOVILLAREAL

save to print version add songbook text version e-mail correct tuner
chordsukulelecavacokeyboardtabbassdrumsharmonicaflute Guitar Pro
close

there isn't a video lesson for this song

chords

Dark Souls 3 - Fireline Shrine

	  		
e|-----------------8-----------|------------------8------7------7------------|    
B|---8-----10-----10------12---|---8-----10------10-------------7------7-----|    
G|---9------9-----11-----------|---9------9-------9-------------8------------|    
D|---9------9------------------|---9------9----------------------------------|    
A|---7------7------------------|---7------7----------------------------------|    
E|----------------11-----------|------------------7-------------6------------|    

e|-------------------------|-------------------------------9-----------------|    
B|---8-----10-----12-------|--------10-------------10----------9-------------|    
G|---9------9--------------|-----------------9--11-----------------11---X----|    
D|---9------9--------------|------------11-----------------------------------|    
A|---7------7--------------|---------9---------------------------------------|    
E|-------------------------|-------------------------------------------------|    

e|------------------------9------------|----------------------------------9--|    
B|--10---------------10------9-----12--|--10--------------10--12-------------|    
G|-----------7---9--------------11-----|--------------------------9----------|    
D|-------9-------------------------11--|----------11---9-------------11------|    
A|---7---------------------------------|-------9-----------------------------|    
E|-------------------------------------|--10---------------------------------|    

e|------------------------9--------------------|----------------------8------|    
B|--10---------------10------9--11-------------|------8------10------10------|    
G|---------------------------------11----------|------9-------9------11------|    
D|-----------9--11-----------------------------|------9-------9--------------|    
A|------11-------------------------------------|------7-------7--------------|    
E|---9-----------------------------------------|---------------------11------|    

e|-------------------------------------|    
B|---8-----------7-------(8)-----------|    
G|---9-------------------(9)-----------|    
D|---9-------------------(9)-----------|    
A|---7-------------------(7)-----------|    
E|-------------------------------------|    

************************************    
| (n)  Ghost note    
|  X   Dead note    
************************************  

		  

See also:

tabs Prototype - The Way It Ends tabs Dragon Ball GT - Sorriso Resplandecente tabs Andy James - After Midnight tabs Maldita Vecindad - Kumbala tabs Megaman - Concrete Jungle tabs Dragon Ball GT - Tema Dragon Ball Gt
e-chords

Other versions:

tabs Misc Computer Games - Dark Souls 3 - Fireline Shrine
auto scroll beats size up size down change color hide chords drawings
tab show chords e-chords YouTube Clip e-chords hide all tabs e-chords go to top tab

share