Misc Christmas

home > Misc Christmas

Amen Tab

Misc Christmas

Difficulty: nolevelnolevel

by joaoewerton

tuner correct add songbook print version text version save to e-mail
chordsukulelecavacokeyboardtabbassdrumsharmonicsflute Guitar Pro
chords

Amen

Key:  C More
Amen Key GG
Amen Key G#G#
Amen Key AA
Amen Key A#A#(one step down)
Amen Key BB(half step down)
Amen Key CC(original key)
Amen Key C#C#(half step up)
Amen Key DD(one step up)
Amen Key D#D#
Amen Key EE
Amen Key FF
Amen Key F#F#
  		
 


Chorus 
   C                                    
E|------------------------|---------------------|-0----------------------|-0-------------------| 
B|-1----------------------|-1-------------------|---------------3---1----|---------------------| 
G|---------------2---0----|----------------0----|------------------------|----------------0----| 
D|------2------------0----|------2---------0----|------2------------0----|------2---------2----| 
A|-3----------------------|-3-------------------|-3----------------------|-3-------------------| 
E|-----------3------------|-----------3---------|-----------3------------|-----------3---------| 
   A-                       men                   A-                       men, 
    
                                               C         G           C 
E|-3--------/5---------|-3---------1---------|-0-------------------|---------------------| 
B|---------------------|---------------------|-----------3---------|-1-------------------| 
G|------0---------0----|------0---------0----|---------------------|-0--------------0----|  
D|-----------0---------|---------------------|------2---------0----|------2---------2----| 
A|-3-------------------|-3-------------------|-3-------------------|-3-------------------| 
E|---------------------|-----------3---------|-----------3---------|-----------3---------| 
   A-                    men       A-          men       A-          men 

Verse 
   C 
E|-0-------------------|------0--------------|-0--------3---0------------|------0---------3----| 
B|----------------3----|-1-------------------|-----------------------3---|-1-------------------| 
G|---------------------|----------------0----|---------------------------|---------------------| 
D|------2---------0----|------2---------0----|------2------------0-------|------2---------2----| 
A|-3---------3---------|-3---------0---------|-3------------3------------|-3---------3---------| 
E|---------------------|---------------------|---------------------------|---------------------| 
   See            the    baby                  ly-      ing in       a     manger         one  

             Am                                   G         G7          C         G 
E|-3----3----5----0---3---|-----------5---------|-3---------1---------|-0-------------------| 
B|------------------------|---------------------|------0--------------|---------------------| 
G|----------------0-------|------2---------2----|----------------0----|------0---------0----| 
D|------2----0------------|-0---------0---------|-0---------0---------|---------------------| 
A|-3----------------------|---------------------|---------------------|-3--------------2----| 
E|------------------------|---------------------|---------------------|-----------3---------| 
   Christmas      morning             A-          men       A-          men        

Chorus 
   C                                    
E|------------------------|---------------------|-0----------------------|-0-------------------| 
B|-1----------------------|-1-------------------|---------------3---1----|---------------------| 
G|---------------2---0----|----------------0----|------------------------|----------------0----| 
D|------2------------0----|------2---------0----|------2------------0----|------2---------2----| 
A|-3----------------------|-3-------------------|-3----------------------|-3-------------------| 
E|-----------3------------|-----------3---------|-----------3------------|-----------3---------| 
   A-                       men                   A-                       men, 
    
                                               C         G           C 
E|-3--------/5---------|-3---------1---------|-0-------------------|---------------------| 
B|---------------------|---------------------|-----------3---------|-1-------------------| 
G|------0---------0----|------0---------0----|---------------------|-0-------------------| 
D|-----------0---------|---------------------|------2---------0----|------2---------2----| 
A|-3-------------------|-3-------------------|-3-------------------|-3-------------------| 
E|---------------------|-----------3---------|-----------3---------|-----------3---------| 
   A-                    men       A-          men       A-          men 



************************************ 

| /  Slide up 

************************************ 
	  

Full key step upFull key step up
Half key step upHalf key step up
Half key step downHalf key step down
Full key step downFull key step down
Search Paypal
auto scroll beats size up size down change color hide chords drawings
tab show chords e-chords YouTube Clip e-chords hide all tabs e-chords go to top tab