Misc Children

home > Misc Children

Au Clair De La Lune Tab

Misc Children

Difficulty: nolevelnolevel

by carlluz

tuner correct add songbook print version text version save to e-mail
chordsukulelecavacokeyboardtabbassdrumsharmonicsflute Guitar Pro
chords

Au Clair De La Lune

	  

Verse 
   C   +       +       +   G   +     C   +   G   +   C   +       +         +       +       +   G7  + 
E|-----------------0---------------|-----0---------------------------|-0---0---0--h1---3-------1-------| 
B|-1---1---1--h3-----------3-------|-1-------3---3---1---------------|---------------------------------| 
G|---------------------0-------0---|---------------------0-------0---|---------------------0-------0---| 
D|---------2-----------------------|---------------------------------|---------2-----------------------| 
A|-3---------------3---------------|-3---------------3---------------|-3---------------3---------------| 
E|-------------------------3-------|---------3---------------3-------|-------------------------3-------| 

       +   G   +   C   +       +     G   +       +   Dm  +       +     G   +       +       +       + 
E|-0--h3---1---1---0---------------|---------------------------------|---------------------------------| 
B|---------------------------------|-3---3---3---3-------------------|-3--p1---0-----------------------| 
G|---------------------0-------0---|-----------------2-------2-------|-------------2---0---------------| 
D|---------------------------------|---------0-----------0-------0---|---------0-----------0-------0---| 
A|-3---------------3---------------|-------------------------0-------|-------------------------2-------| 
E|---------3---------------3-------|-3---------------1---------------|-3---------------3---------------| 

   C   +       +       +   G   +     C   +   G   +   C   +       +  
E|-----------------0---------------|-----0---------------------------| 
B|-1---1---1--h3-----------3-------|-1-------3---3---1---------------| 
G|---------------------0-------0---|---------------------0-------0---| 
D|---------2-----------------------|---------------------------------| 
A|-3---------------3---------------|-3---------------3---------------| 
E|-------------------------3-------|---------3---------------3-------| 

Lyrics 

Au clair de la lune, mon ami Pierrot, 
Prête-moi ta plume pour écrire un mot. 
Ma chandelle est morte, je n'ai plus de feu, 
Ouvre-moi ta porte, pour l'amour de Dieu. 

Au clair de la lune Pierrot répondit: 
Je n'ai pas de plume, je suis dans mon lit. 
Va chez la voisine, je crois qu'elle y est, 
Car dans sa cuisine on bat le briquet. 

Au clair de la lune 3 petits coquins 
Sautent dans les plumes comme 3 petits vilains 
Au lieu de dormir les petits lutins 
Veulent encore rire jusqu'au petit matin. 

Au clair de la lune, je crois qu'il est temps, 
De poser sa plume pour un petit moment. 
Au clair de la lune volons vers les cieux 
Ecoutons la lune et fermons les yeux.                     
                            
************************************                                  

| p   Pull-off 
| h   Hammer-on 
                                           
************************************ 
	  

there isn't a video lesson for this song

request
Full key step upFull key step up
Half key step upHalf key step up
Half key step downHalf key step down
Full key step downFull key step down
Search
auto scroll beats size up size down change color hide chords drawings
tab show chords e-chords YouTube Clip e-chords hide all tabs e-chords go to top tab