Misc Cartoons

Witch Doctor Theme Tab

Misc Cartoons

Difficulty: nolevelnolevel

by marcnagel

tuner correct add songbook print version text version save to e-mail
chordsukulelecavacokeyboardtabbassdrumsharmonicsflute Guitar Pro
close

there isn't a video lesson for this song

chords

Witch Doctor Theme

  		1st verse 

e|-8-8-8-8-5---5-8-8-5---8---| 
B|-----------8---------8-----| 
G|---------------------------| 
D|---------------------------| 
A|---------------------------| 
E|---------------------------| x2 

e|-10-10-10-10-7----5-8-8-5---8---| 
B|---------------8----------8-----| 
G|--------------------------------| 
D|--------------------------------| 
A|--------------------------------| 
E|--------------------------------| 

Refrain 

e|---5-8--12------------------------------12---------------------------------| 
B|-8---------13-10-13-13--13-13-8-8-10-8-----13-10-13-13--8-10-10-12-12-13---| 
G|---------------------------------------------------------------------------| 
D|---------------------------------------------------------------------------| 
A|---------------------------------------------------------------------------| 
E|---------------------------------------------------------------------------| 


hope you enjoy 
	  

Search Paypal
auto scroll beats size up size down change color hide chords drawings
tab show chords e-chords YouTube Clip e-chords hide all tabs e-chords go to top tab

share with facebook