Misc Cartoons

home > Misc Cartoons

Fairy Tail - Silvers Theme Tab

Misc Cartoons

Difficulty: nolevelnolevel

by abelamin

tuner correct add songbook print version text version save to e-mail
chordsukulelecavacokeyboardtabbassdrumsharmonicsflute Guitar Pro
chords

Fairy Tail - Silvers Theme

  		
e|---------------------------------------------------------------| 
B|----------------------7--8--10---------------------------------| 
G|-----7-h-9-~-------9------------9-~--------7-h-9-~-------------| 
D|--9-------------------------------------9----------------------| 
A|---------------------------------------------------------------| 
E|---------------------------------------------------------------| 

e|---------------------------------------------------------------| 
B|-----7-h-8-p-7-------------------------------------------------| 
G|--9-------------9--8-------------------------------------------| 
D|----------------------9--9-p-8--8-h-9--9-~---------------------| 
A|---------------------------------------------------------------| 
E|---------------------------------------------------------------| 

e|---------------------------------------------------------------| 
B|----------------------7--8--10---------------------------------| 
G|-----7-h-9-~-------9------------9-~--------7-h-9-~-------------| 
D|--9-------------------------------------9----------------------| 
A|---------------------------------------------------------------| 
E|---------------------------------------------------------------| 

e|---------------------------------------------------------------| 
B|-----7-h-8-p-7-------------------------------------------------| 
G|--9-------------9--8-------------------------------------------| 
D|----------------------9--9-~---\-------------------------------| 
A|---------------------------------------------------------------| 
E|---------------------------------------------------------------| 

e|-------12------12-----12---------------------------------------| 
B|-/-12------10------8------7-h-8-p-7-------------/-12--/-12-----| 
G|-------------------------------------9-p-7-h-9-----------------| 
D|---------------------------------------------------------------| 
A|---------------------------------------------------------------| 
E|---------------------------------------------------------------| 

e|---------------------------------------------------------------| 
B|--10b(12)--10b(12)-r--p-8--------------------------------------| 
G|---------------------------9-\---------------------------------| 
D|---------------------------------------------------------------| 
A|---------------------------------------------------------------| 
E|---------------------------------------------------------------| 

e|-------12------12-----12---------------------------------------| 
B|-/-12------10------8------7-h-8-p-7-------------/-12--/-12-----| 
G|-------------------------------------9-p-7-h-9-----------------| 
D|---------------------------------------------------------------| 
A|---------------------------------------------------------------| 
E|---------------------------------------------------------------| 

e|---------------------------------------------------------------| 
B|--10b(12)--10b(12)--10b(12)-~---10b(12)--10--8--7--------7-----| 
G|---------------------------------------------------9--7-----9-~| 
D|---------------------------------------------------------------| 
A|---------------------------------------------------------------| 
E|---------------------------------------------------------------| 

************************************ 

| /    slide up 
| \    slide down 
| h    hammer-on 
| p    pull-off 
| ~    vibrato 
| b()  bend (to) 
| r    release bend 


************************************ 
	  

Search Paypal
auto scroll beats size up size down change color hide chords drawings
tab show chords e-chords YouTube Clip e-chords hide all tabs e-chords go to top tab