Misc Cartoons

home > Misc Cartoons

Didier Julia - Papyrus Ost Tab

Misc Cartoons

Difficulty: nolevelnolevel

by renejunior

tuner correct add songbook print version text version save to e-mail
chordsukulelecavacokeyboardtabbassdrumsharmonicsflute Guitar Pro
chords

Didier Julia - Papyrus Ost

  		verse 1: 

    C#m 
E|------------------------------------------9--7------------------------------|      
B|-----------------7-----7--9--7--9--10--9--------10--9--7--9--7-----7--------|     
G|--6--8--9--8--9-----9-------------------------------------------9-----9--8--| x2     
D|----------------------------------------------------------------------------| 
A|----------------------------------------------------------------------------| 
E|----------------------------------------------------------------------------| 

    Fm               
E|------------------------------------------------------14--12--------------------------------------|     
B|----------------------12------12--14--12--14--15--14----------15--14--12--14--12------12----------|     
G|--11--13--14--13--14------14------------------------------------------------------14------14--13--| x2   
D|--------------------------------------------------------------------------------------------------| 
A|--------------------------------------------------------------------------------------------------| 
E|--------------------------------------------------------------------------------------------------| 


Chorus: 

    C#m                         F#m/D#         G#      
E|--x--9------9-----9-----9-----7-----7--9(v)-----x---| 
B|--------10-----9-----7-----------10-----------------| 
G|---------------------------9------------------------| 
D|----------------------------------------------------| 
A|----------------------------------------------------| 
E|----------------------------------------------------| 

    C#m                             F#m/D#           G#      
E|--x--16--14--19--16------14----------16--14--19--16------14------| 
B|---------------------17------16--14------------------17------16--| 
G|-----------------------------------------------------------------| 
D|-----------------------------------------------------------------| 
A|-----------------------------------------------------------------| 
E|-----------------------------------------------------------------| 

verse 2: 
 
    Dm 
E|------------------------------------------------10--8----------------------------------|    
B|-------------------8------8--10--8--10--11--10---------11--10--8--10--8------8---------|   
G|--7--9--10--9--10-----10-------------------------------------------------10-----10--9--| x2   
D|---------------------------------------------------------------------------------------| 
A|---------------------------------------------------------------------------------------| 
E|---------------------------------------------------------------------------------------| 

    F#m 
E|------------------------------------------------------15--13--------------------------------------|    
B|----------------------13------13--15--13--15--16--15----------16--15--13--15--13------13----------|    
G|--12--14--15--14--15------15------------------------------------------------------15------15--14--| x2   
D|--------------------------------------------------------------------------------------------------| 
A|--------------------------------------------------------------------------------------------------| 
E|--------------------------------------------------------------------------------------------------| 

Outro: 
   
E|-----------------------------------------------------------------------------------------| 
B|-------------------8------8--10--8--10--11-------------------8------8--10--8--10--11-----| 
G|--7--9--10--9--10-----10--------------------7--9--10--9--10-----10--------------------7--| 
D|-----------------------------------------------------------------------------------------| 
A|-----------------------------------------------------------------------------------------| 
E|-----------------------------------------------------------------------------------------| 
	  

Full key step upFull key step up
Half key step upHalf key step up
Half key step downHalf key step down
Full key step downFull key step down
Search Paypal
auto scroll beats size up size down change color hide chords drawings
tab show chords e-chords YouTube Clip e-chords hide all tabs e-chords go to top tab