Misanthrope

Forces Conspiratrices Tab

Misanthrope

Difficulty: nolevelnolevel

by victborges

tuner correct add songbook print version text version save to e-mail
chordsukulelecavacokeyboardtabbassdrumsharmonicsflute Guitar Pro
close

there isn't a video lesson for this song

request
chords

Forces Conspiratrices

  		Intro 

Guitar 1 
D|--------------------------------------------------------------| 
A|--------------------------------------------------------------| 
F|--------------------------------------------------------------| 
C|-6-----6-----6-----6-----5---7--6-----6-----6----------5--7---|x2 
G|-4-4-4-4-4-4-4-4-4-4-4-4-3---5--4-4-4-4-4-4-4-4--7--6--3--5---| 
D|-------------------------------------------------5--4---------| 

Guitar 2 
D|---------| 
A|---------| 
F|---------| 
C|---6-----|x2 
G|---4-----| 
D|---------| 

Guitar 1&2 (play two times) 
D|--------------------------------------------------------------| 
A|--------------------------------------------------------------| 
F|-6-6-6-6-6-6-6-6-9-9-9-8-8-7-7-6-6-6-6-6-6-6-6----------------| 
C|-x-x-x-x-x-x-x-x-x-x-x-x-x-x-x-x-x-x-x-x-x-x-x--------5--7----| 
G|-4-4-4-4-4-4-4-4-7-7-7-6-6-5-5-4-4-4-4-4-4-4-4--7--6--3--5----| 
D|------------------------------------------------5--4----------| 

D|--------------------------------------------------------------| 
A|--------------------------------------------------------------| 
F|-6-6-6-6-6-6-6-6-9-9-9-8-8-7-7-6-6-6-6-6-6-6-6----------------| 
C|-x-x-x-x-x-x-x-x-x-x-x-x-x-x-x-x-x-x-x-x-x-x-x------------7---| 
G|-4-4-4-4-4-4-4-4-7-7-7-6-6-5-5-4-4-4-4-4-4-4-4--7--6--3-3-5---| 
D|------------------------------------------------5--4----------| 

verse 1 

Guitar 1&2 
D|--------------------------------------------------------------| 
A|--------------------------------------------------------------| 
F|--------------------------------------------------------------|x4 
C|-6-----6-----6-----6-----5---7--6-----6-----6----------5--7---| 
G|-4-4-4-4-4-4-4-4-4-4-4-4-3---5--4-4-4-4-4-4-4-4--7--6--3--5---| 
D|-------------------------------------------------5--4---------| 

Chorus 1  

Guitar 1&2 
D|-----------------------------------------------------------------------| 
A|-----------------------------------------------------------------------| 
F|--------------------------------------------------------------5--------| 
C|------------------------------------------------------------3---3p0----| 
G|-2---------2-------2----------3---2--------2-------3-------------------| 
D|-0--0-0-0--0--0-0--0--0-0-0-0-1---0--0-0-0-0--0-0--1---1-0-------------| 

D|------------------------------------------------------------------------| 
A|------------------------------------------------------------------------| 
F|-------------------------------------4-------------0-----0---0---0------| 
C|-----------------------------------4--------0----4-----7-------4--------| 
G|-2---------2-------2----------3--2--------2----5-----8-----5------------| 
D|-0--0-0-0--0--0-0--0--0-0-0-0-1---------3-------------------------------| 

D|-----------------------------------------------------------------------| 
A|-----------------------------------------------------------------------| 
F|--------------------------------------------------------------5--------| 
C|------------------------------------------------------------3---3p0----| 
G|-2---------2-------2----------3---2--------2-------3-------------------| 
D|-0--0-0-0--0--0-0--0--0-0-0-0-1---0--0-0-0-0--0-0--1---1-0-------------| 

D|------------------------------------------------------------------------| 
A|------------------------------------------------------------------------| 
F|-------------------------------------4-------------0-----0---0----------| 
C|-----------------------------------4--------0----4-----7-------4p0------| 
G|-2---------2-------2----------3--2--------2----5-----8-----5------------| 
D|-0--0-0-0--0--0-0--0--0-0-0-0-1---------3-------------------------------| 


Intro theme (play two times) 

Guitar 1&2 
D|--------------------------------------------------------------| 
A|--------------------------------------------------------------| 
F|-6-6-6-6-6-6-6-6-9-9-9-8-8-7-7-6-6-6-6-6-6-6-6----------------| 
C|-x-x-x-x-x-x-x-x-x-x-x-x-x-x-x-x-x-x-x-x-x-x-x--------5--7----| 
G|-4-4-4-4-4-4-4-4-7-7-7-6-6-5-5-4-4-4-4-4-4-4-4--7--6--3--5----| 
D|------------------------------------------------5--4----------| 

D|--------------------------------------------------------------| 
A|--------------------------------------------------------------| 
F|-6-6-6-6-6-6-6-6-9-9-9-8-8-7-7-6-6-6-6-6-6-6-6----------------| 
C|-x-x-x-x-x-x-x-x-x-x-x-x-x-x-x-x-x-x-x-x-x-x-x------------7---| 
G|-4-4-4-4-4-4-4-4-7-7-7-6-6-5-5-4-4-4-4-4-4-4-4--7--6--3-3-5---| 
D|------------------------------------------------5--4----------| 

verse 2 

Guitar 1&2 
D|--------------------------------------------------------------| 
A|--------------------------------------------------------------| 
F|--------------------------------------------------------------|x4 
C|-6-----6-----6-----6-----5---7--6-----6-----6----------5--7---| 
G|-4-4-4-4-4-4-4-4-4-4-4-4-3---5--4-4-4-4-4-4-4-4--7--6--3--5---| 
D|-------------------------------------------------5--4---------| 


Chorus 2  

Guitar 1&2 
D|-----------------------------------------------------------------------| 
A|-----------------------------------------------------------------------| 
F|--------------------------------------------------------------5--------| 
C|------------------------------------------------------------3---3p0----| 
G|-2---------2-------2----------3---2--------2-------3-------------------| 
D|-0--0-0-0--0--0-0--0--0-0-0-0-1---0--0-0-0-0--0-0--1---1-0-------------| 

D|------------------------------------------------------------------------| 
A|------------------------------------------------------------------------| 
F|-------------------------------------4-------------0-----0---0---0------| 
C|-----------------------------------4--------0----4-----7-------4--------| 
G|-2---------2-------2----------3--2--------2----5-----8-----5------------| 
D|-0--0-0-0--0--0-0--0--0-0-0-0-1---------3-------------------------------| 

D|-----------------------------------------------------------------------| 
A|-----------------------------------------------------------------------| 
F|--------------------------------------------------------------5--------| 
C|------------------------------------------------------------3---3p0----| 
G|-2---------2-------2----------3---2--------2-------3-------------------| 
D|-0--0-0-0--0--0-0--0--0-0-0-0-1---0--0-0-0-0--0-0--1---1-0-------------| 

D|------------------------------------------------------------------------| 
A|------------------------------------------------------------------------| 
F|-------------------------------------4-------------0-----0---0----------| 
C|-----------------------------------4--------0----4-----7-------4p0------| 
G|-2---------2-------2----------3--2--------2----5-----8-----5------------| 
D|-0--0-0-0--0--0-0--0--0-0-0-0-1---------3-------------------------------| 


Bridge 

Guitar 1&2 
D|---------------------------------------------------------------------| 
A|---------------------------------------------------------------------| 
F|---------------------------------------------------------------------| 
C|-----2-----2-----2-----2-----2--------6-----6------7------4------6---| 
G|---4---4-----4-----4-----4-----4----4---4-----4------4------4------4-| 
D|-5-------5-----5-----5-----5------2-------2-----2------2------2------| 

Guitar 1 
D|-----------------------------------------------------------------------------| 
A|-----------------------------------------------------------------------------| 
F|-----------------------------------------------------------------------------| 
C|-----2-----2-----2-----2-----2-----------------------------------------------| 
G|---4---4-----4-----4-----4-----4-------4------6------7-------9--9h11---------| 
D|-5-------5-----5-----5-----5-------2-5----4-7----5-9----7-11---------9h12----| 

Guitar 2 
D|----------------------------------------------------------------------------| 
A|----------------------------------------------------------------------------| 
F|-----6------6-----6-----6-----6---------------------------------------------| 
C|---7---7------7-----7-----7-----7-------------------------------------------| 
G|-7-------7------7-----7-----7----------4------6------7-------9--9h11--------| 
D|-----------------------------------2-5----4-7----5-9----7-11---------9h12---| 

Guitar 1&2 
D|---------------------------------------------------------------------| 
A|---------------------------------------------------------------------| 
F|---------------------------------------------------------------------| 
C|-----2-----2-----2-----2-----2--------6-----6------7------4------6---| 
G|---4---4-----4-----4-----4-----4----4---4-----4------4------4------4-| 
D|-5-------5-----5-----5-----5------2-------2-----2------2------2------| 

Guitar 1 
D|-----------------------------------------------------------------------------| 
A|-----------------------------------------------------------------------------| 
F|-----------------------------------------------------------------------------| 
C|-----2-----2-----2-----2-----2-----------------------------------------------| 
G|---4---4-----4-----4-----4-----4-------4------6------7-------9--9h11---------| 
D|-5-------5-----5-----5-----5-------2-5----4-7----5-9----7-11---------9h12----| 

Guitar 2 
D|-------------------------------------------------------------------11h12---| 
A|--------------------------------------------------------------9h12---------| 
F|-----6------6-----6-----6-----6--------6-----8------9------11--------------| 
C|---7---7------7-----7-----7-----7--4-7---6-9---7-11---9-13-----------------| 
G|-7-------7------7-----7-----7----------------------------------------------| 
D|---------------------------------------------------------------------------| 

Solo 

Guitar 1 (solo) 
D|-8h12-8----8----------------------------------------------------------------| 
A|--------12---12-8h12p8----8-------------------------------------------------| 
F|-----------------------11---11-9-12-11-9--5h9-5---5-------------------------| 
C|------------------------------------------------9---9-5h9p5-4h5p4-2h4-4h5---| 
G|----------------------------------------------------------------------------| 
D|----------------------------------------------------------------------------| 

D|----------------------------------5---------7-8-12p8-------13-17p13--------| 
A|----------------------------5-7-8---6-----8----------10-15----------15-----| 
F|------------------4-7-4-5-7-----------7-9------------------------------14--| 
C|--------4-7-4-5-7----------------------------------------------------------| 
G|-3-5-7---------------------------------------------------------------------| 
D|---------------------------------------------------------------------------| 

D|-------------------------------------------| 
A|------17-----------------------------------| 
F|-16b-----16pbr-14---/14-14-14-16-16-16-17--| 
C|-------------------------------------------| 
G|-------------------------------------------| 
D|-------------------------------------------| 

D|----------------14--------15-------14---14p9---------11-12-9--------------14-16-14---------| 
A|-------13------------------------------------10-9-12---------10--------16----------17-16---| 
F|-11-12----11-12----12-12-----11-11------------------------------11-/16---------------------| 
C|-------------------------------------------------------------------------------------------| 
G|-------------------------------------------------------------------------------------------| 
D|-------------------------------------------------------------------------------------------| 

Guitar 2 (rhythm) 
D|---------------------------------------------------------------------| 
A|---------------------------------------------------------------------| 
F|-----5-----------------4-------------5-----------------4-------------| 
C|-----------4-----5-----------4h5-----------4-----5-----------4h5-----| 
G|-3-3---3-3---3-3---3-3---3-3-----0-0---0-0---0-0---0-0---0-0---------| 
D|---------------------------------------------------------------------| 


D|----------------------------------------------------------------------| 
A|----------------------------------------------------------------------| 
F|-----5-----------------4----------------------------------------------| 
C|-----------4-----5-----------4h5--2-----4-----5-----7-----9--7-7------| 
G|-3-3---3-3---3-3---3-3---3-3------0-0-0-2-2-2-3-3-3-5-5-5-7--5-5------| 
D|----------------------------------------------------------------------| 

D|---------------------------------------------------------------------| 
A|---------------------------------------------------------------------| 
F|-----5-----------------4-------------5-----------------4-------------| 
C|-----------4-----5-----------4h5-----------4-----5-----------4h5-----| 
G|-3-3---3-3---3-3---3-3---3-3-----0-0---0-0---0-0---0-0---0-0---------| 
D|---------------------------------------------------------------------| 

D|-----------------------------------------------------------------------------| 
A|-----------------------------------------------------------------------------| 
F|-----5-----------------4-----------------------------------------------------| 
C|-----------4-----5-----------4h5---------------------------------------------| 
G|-3-3---3-3---3-3---3-3---3-3----------4------6------7-------9--9h11----------| 
D|---------------------------------2-5----4-7----5-9----7-11---------9h12------| 

Bridge 2 (play two times) 

Guitar 1&2 
D|-----------------------------------------------------------------------------------------| 
A|-----------------------------------------------------------------------------------------| 
F|--------------------------------------------------------------------------------------6--| 
C|------------------4-------------------3---3/4--------------------4--6h8p6-----------6----| 
G|-6-6-6-6-6-6-6-6--6--6-6-6-6-6-6-6-6--5-5-5/6---6-6-6-6-6-6-6-6--6--------8-------8------| 
D|----------------------------------------------------------------------------9-6-9--------| 

D|--------------------------------------------------------------------| 
A|--------------------------------------------------------------------| 
F|--------------------------------------------------------------------| 
C|------------------4-------------------3---3/4--------------------4--| 
G|-6-6-6-6-6-6-6-6--6--6-6-6-6-6-6-6-6--5-5-5/6---6-6-6-6-6-6-6-6--6--| 
D|--------------------------------------------------------------------| 

D|------------------------13-16p13---------13h16/18---| 
A|----------------------14---------14----14-----------| 
F|-13h15p13----------13---------------13--------------| 
C|----------15----15----------------------------------| 
G|-------------16-------------------------------------| 
D|----------------------------------------------------| 

D|---------------------------------------------| 
A|---------------------------------------------| 
F|---------------------------------------------| 
C|------------11---------------------------10--| 
G|-12-9-9-9-9----9-9-9-9-12-8-8--11--8--11-----| 
D|---------------------------------------------| 

D|-------------------------------------------------| 
A|-------------------------------------------------| 
F|---------------------------------------------10--| 
C|----------------------------11----------------9--| 
G|-9-9-9-9-9-9-9-9-12-9-9-9-9----9-9-9-9-12-8-8-8--| 
D|-------------------------------------------------| 

D|---------------------------------------------------------------| 
A|---------------------------------------------------------------| 
F|---------------------------------------------------------------| 
C|----------------------------11----------------------------10---| 
G|-9-9-9-9-9-9-9-9-12-9-9-9-9----9-9-9-9-12-8-8--11--8--11-------| 
D|---------------------------------------------------------------| 

Guitar 1 
D|-----------------------------------------| 
A|-----------8h12p8------------------------| 
F|------7h11--------11---------------------| 
C|-7h11------------------7--6--10--12------| 
G|-----------------------5--4---8--10------| 
D|-----------------------------------------| 

Guitar 2 
D|-----------------------------------------| 
A|-----------------------------------------| 
F|-----------7h11p7------------------------| 
C|------7h11--------11--7--6--10--12-------| 
G|-9h11-----------------5--4---8--10-------| 
D|-----------------------------------------| 

Intro theme (play two times) 

Guitar 1&2 
D|--------------------------------------------------------------| 
A|--------------------------------------------------------------| 
F|-6-6-6-6-6-6-6-6-9-9-9-8-8-7-7-6-6-6-6-6-6-6-6----------------| 
C|-x-x-x-x-x-x-x-x-x-x-x-x-x-x-x-x-x-x-x-x-x-x-x--------5--7----| 
G|-4-4-4-4-4-4-4-4-7-7-7-6-6-5-5-4-4-4-4-4-4-4-4--7--6--3--5----| 
D|------------------------------------------------5--4----------| 

D|--------------------------------------------------------------| 
A|--------------------------------------------------------------| 
F|-6-6-6-6-6-6-6-6-9-9-9-8-8-7-7--------------------------------| 
C|-x-x-x-x-x-x-x-x-x-x-x-x-x-x-x-6-----6-----6----------------7-| 
G|-4-4-4-4-4-4-4-4-7-7-7-6-6-5-5-4-4-4-4-4-4-4-4---7--6--3-3--5-| 
D|-------------------------------------------------5--4---------| 

verse 3 

Guitar 1&2 
D|--------------------------------------------------------------| 
A|--------------------------------------------------------------| 
F|--------------------------------------------------------------|x4 
C|-6-----6-----6-----6-----5---7--6-----6-----6----------5--7---| 
G|-4-4-4-4-4-4-4-4-4-4-4-4-3---5--4-4-4-4-4-4-4-4--7--6--3--5---| 
D|-------------------------------------------------5--4---------| 

Chorus 3  

Guitar 1&2 
D|-----------------------------------------------------------------------| 
A|-----------------------------------------------------------------------| 
F|--------------------------------------------------------------5--------| 
C|------------------------------------------------------------3---3p0----| 
G|-2---------2-------2----------3---2--------2-------3-------------------| 
D|-0--0-0-0--0--0-0--0--0-0-0-0-1---0--0-0-0-0--0-0--1---1-0-------------| 

D|------------------------------------------------------------------------| 
A|------------------------------------------------------------------------| 
F|-------------------------------------4-------------0-----0---0---0------| 
C|-----------------------------------4--------0----4-----7-------4--------| 
G|-2---------2-------2----------3--2--------2----5-----8-----5------------| 
D|-0--0-0-0--0--0-0--0--0-0-0-0-1---------3-------------------------------| 

D|-----------------------------------------------------------------------| 
A|-----------------------------------------------------------------------| 
F|--------------------------------------------------------------5--------| 
C|------------------------------------------------------------3---3p0----| 
G|-2---------2-------2----------3---2--------2-------3-------------------| 
D|-0--0-0-0--0--0-0--0--0-0-0-0-1---0--0-0-0-0--0-0--1---1-0-------------| 

D|------------------------------------------------------------------------| 
A|------------------------------------------------------------------------| 
F|-------------------------------------4-------------0-----0---0----------| 
C|-----------------------------------4--------0----4-----7-------4p0------| 
G|-2---------2-------2----------3--2--------2----5-----8-----5------------| 
D|-0--0-0-0--0--0-0--0--0-0-0-0-1---------3-------------------------------| 


Outro 

Guitar 1&2 
D|-----------------------------------------------------------------------| 
A|-----------------------------------------------------------------------| 
F|--------------------------------------------------------------5--------| 
C|------------------------------------------------------------3---3p0----| 
G|-2---------2-------2----------3---2--------2-------3-------------------| 
D|-0--0-0-0--0--0-0--0--0-0-0-0-1---0--0-0-0-0--0-0--1---1-0-------------| 

D|---------------------------------------------------------------------------| 
A|---------------------------------------------------------------------------| 
F|-------------------------------------4-------------0-----0---0---0---------| 
C|-----------------------------------4--------0----4-----7-------4------2----| 
G|-2---------2-------2----------3--2--------2----5-----8-----5----------2----| 
D|-0--0-0-0--0--0-0--0--0-0-0-0-1---------3-----------------------------0----| 

************************************ 

| h   Hammer-on 
| p   Pull-off 
| b   Bend 
| pbr Pre-bend release 
| /   Slide up 


************************************ 
	  

Search Paypal
auto scroll beats size up size down change color hide chords drawings
tab show chords e-chords YouTube Clip e-chords hide all tabs e-chords go to top tab

share with facebook