Minor Alps

Far From The Roses

Minor Alps

tabs

by  EDSOOLIVEIRA

save to print version add songbook text version e-mail correct tuner
chordsukulelecavacokeyboardtabbassdrumsharmonicaflute Guitar Pro
close

there isn't a video lesson for this song

chords

Far From The Roses

	  		




Chords used: 

  Dm  Csus2  Em    Am    G   Full C  D     C 

|-1--|--0--|-----|----|--3--|--0---|-2--|--0--| 
|-3--|--3--|--0--|--1-|--0--|--1---|-3--|--1--| 
|-2--|--0--|--0--|--2-|--0--|--0---|-2--|--0--| 
|-0--|--x--|--2--|--2-|--0--|--2---|----|--2--| 
|----|--3--|--2--|----|--2--|--3---|----|--3--| 
|----|-----|-----|----|--3--|--3---|----|-----| 



Intro and Verse 


Guitar 1 

|--------------------------------------------| 
|---6-5------6-5-----------6-5--------6-5----| 
|-7-----5---7---5--5-----7-----5----7-----5-5| 
|--------------------------------------------| 
|--------------------------------------------| x2 
|--------------------------------------------| 

Guitar 2 (up and down strum) 

|-1-1-1---------1-1-1-0-1----------| 
|-3-3-3--3-3-3--3-3-------3-3-3----| 
|-2-2-2--0-0-0--2-2-------0-0-0----| 
|-0-0-0--x-x-x--0-0-------x-x-x----| 
|--------3-3-3------------3-3-3----| 
|----------------------------------| 

Lead into Chorus: 
(Guitar 1 and Guitar 2) 


To hear what this is whatever it is 

|----3-3--3-3---0--0-0-0------------| 
|----0-0--0-0---1--1-1-1---1-1-1-1--| 
|----0-0--0-0---0--0-0-0---2-2-2-2--| 
|----0-0--------2--2-2-2---2-2-2-2--| 
|----2-2--------3--3-3-3------------| 
|----3-3----------------------------| 


Chorus 1   
(Guitar 1 and Guitar 2) 


They say where your hat is, is where your home is 

|--------0-0-0-0-------------------------------2-2-2-2-2-2-2-2---| 
|--------1-1-1-1------------1-1-1-1------------3-3-3-3-3-3-3-3---| 
|--------0-0-0-0------------0-0-0-0------------2-2-2-2-2-2-2-2---| 
|--------2-2-2-2------------2-2-2-2------------------------------| 
|--------3-3-3-3------------2-2-2-2------------------------------| 
|---------------------------3-3-3-3------------------------------| 


     Distracted enough to lose    all your focus 

|--------0-0-0-0-------------------------------2-2-2-2-2-2-2-2---| 
|--------1-1-1-1------------1-1-1-1------------3-3-3-3-3-3-3-3---| 
|--------0-0-0-0------------0-0-0-0------------2-2-2-2-2-2-2-2---| 
|--------2-2-2-2------------2-2-2-2------------------------------| 
|--------3-3-3-3------------2-2-2-2------------------------------| 
|---------------------------3-3-3-3------------------------------| 


   So far from the roses 

|--------------------------------------------------| 
|----------------------------------1-1-1-1-1-1-1-1-| 
|----------------------------------2-2-2-2-2-2-2-2-| 
|-----2--------2-2--2-2-2-2-2------2-2-2-2-2-2-2-2-| 
|-----2--------2-2--2-2-2-2-2----------------------| 
|--------------------------------------------------| 


Chorus 2 
(Guitar 1 and Guitar 2) 


They say where your hat is, is where your home is 

|--------0-0-0-0-------------------------------2-2-2-2-2-2-2-2---| 
|--------1-1-1-1------------1-1-1-1------------3-3-3-3-3-3-3-3---| 
|--------0-0-0-0------------0-0-0-0------------2-2-2-2-2-2-2-2---| 
|--------2-2-2-2------------2-2-2-2------------------------------| 
|--------3-3-3-3------------2-2-2-2------------------------------| 
|---------------------------3-3-3-3------------------------------| 


         Racing leaves on a shallow stream in a concrete pipe 

|--------0-0-0-0-------------------------------2-2-2-2-2-2-2-2---| 
|--------1-1-1-1------------1-1-1-1------------3-3-3-3-3-3-3-3---| 
|--------0-0-0-0------------0-0-0-0------------2-2-2-2-2-2-2-2---| 
|--------2-2-2-2------------2-2-2-2------------------------------| 
|--------3-3-3-3------------2-2-2-2------------------------------| 
|---------------------------3-3-3-3------------------------------| 

  Pretending they're horses   

|--------------------------------------------------| 
|----------------------------------1-1-1-1-1-1-1-1-| 
|----------------------------------2-2-2-2-2-2-2-2-| 
|-----2--------2-2--2-2-2-2-2------2-2-2-2-2-2-2-2-| 
|-----2--------2-2--2-2-2-2-2----------------------| 
|--------------------------------------------------| 



Bridge  (Guitar 1 only)  

                         You are the audience your with 
|--------1---------1-----------------1-----------------| 
|--1-----0----1----0----1------------0-------------1---| 
|--0-----0----0----0----0------------0-------------0---| 
|--2-----0----2----0----2------------0-------------2---| 
|--3-----x----3----x----3------------x-------------3---| 
|--3-----3----3----3----3------------3-------------3---| 


   the only seat   You paint the backdrop and direct 
|-----------1---------------------1--------------------| 
|-----------0------1--------------0-----------1--------| 
|-----------0------0--------------0-----------0--------| 
|-----------0------2--------------0-----------2--------| 
|-----------x------3--------------x-----------3--------| 
|-----------3------3--------------3-----------3--------| 

   you're the whole team       The answer is almost always  

|-------------------1-------------------------1--------| 
|-------------------0-------1-----------------0--------| 
|-------------------0-------0-----------------0--------| 
|-------------------0-------2-----------------0--------| 
|-------------------x-------3-----------------x--------| 
|-------------------3-------3-----------------3--------| 

  work it's what you need            Tiny victories and 

|--------------------1---------------------1-----------| 
|--1-----------------0--------1------------0-----------| 
|--0-----------------0--------0------------0-----------| 
|--2-----------------0--------2------------0-----------| 
|--3-----------------x--------3------------x-----------| 
|--3-----------------3--------3------------3-----------| 

       bursts of speed 

|----------------1-----------------------------| 
|--1-------------0-----------------------------| 
|--0-------------0-----------------------------| 
|--2-------------0-----------------------------| 
|--3-------------x-----------------------------| 
|--3-------------3-----------------------------| 



|----------------------------------------------| 
|-------------------0--------------------------| 
|-------------0-------0------------------------| 
|-----0-2-------2-------2----------------------| 
|--0-3----3-0-----3----------------------------| 
|----------------------------------------------| 


KEY 

| /  slide up 
| \  slide down 
| h  hammer-on 
| p  pull-off 
| ~  vibrato 
| +  harmonic 
| x  Mute note 
 
		  

Full key step upFull key step up
Half key step upHalf key step up
Half key step downHalf key step down
Full key step downFull key step down
auto scroll beats size up size down change color hide chords drawings
tab show chords e-chords YouTube Clip e-chords hide all tabs e-chords go to top tab

share