Miley Cyrus

Kicking And Screaming

Miley Cyrus

tabs Beginner beginner

by  TAMYJUDD

save to print version add songbook text version e-mail correct tuner
chordsukulelecavacokeyboardtabbassdrumsharmonicaflute Guitar Pro
close

there isn't a video lesson for this song

chords

Kicking And Screaming

Written by Kara DioGuardi/John Shanks

	  		Intro: 

-------------- 
-------------- 
-------------- 
---2-----2---- 
-------------- 
--0-0--0-0---- 

Verse: 
--------------- 
--------------- 
--------------- 
--------------- 
--2-x-2--xxx--- 
--0-x-0--xxx--- 

Pre: 
------------------------------- 
------------------------------- 
------------------------------- 
--2--xx--xx-------5---7-------- 2x 
--2--xx--xx---3x--5---7-------- 
--0--xx--xx-------3---5-------- 

Chorus: 
------------------------------- 
------------------------------- 
-1----4----7---5--------------- 
-2----5----7---5---7----------- 2x 
-2----5----5---3---7----------- 
-0----3------------5----------- 

Verse: 
Pre: 
Chorus: 2x 

Bridge: 
------------------------------------------------ 
------------------------------------------------ 
------------------------------------------------ 
------------------------------------------------ 
---2-22222---7-78899---------------------------- 
---0-03030---5-56677-10\12---------------------- 

Don?t keep me waiting, anticipating 
Treating me like a fool 
I got news for you 
I?m turning my back 
I?m dropping a bomb on you 

You want me 
You need me 
Believe me, you?ll be callin? 
You love me 
You hate me 
Believe me, you?ll come crawlin? 

So get down and get off 
Let me show you what you?ll be missing 
We break up, you break down 
Gonna drag you through this kicking and screaming 

Don?t keep me guessing 
I?m your favorite obsession 
Don?t give me that lame excuse 
Is it me that you?re messing 
It?s the same old confession 
You?re the one with something to lose 

Watch out now 
Don?t blackout 
There?s no doubt 
You can?t have it 
Control you 
I?ll own you 
I?ll show you, but you still can?t have it 

So get down and get off 
Let me show you what you?ll be missing 
We break up, you break down 
{ Miley Cyrus Lyrics are found on www.songlyrics.com } 
Gonna drag you through this kicking and screaming 
So get down and get off 
You?re not the only one that I?ve been missing 
We break up, you break down 
Gonna drag you through this kicking and screaming 

You?ll be kicking and screaming 
You?ll be kicking and screaming 
But I?m so deceiving, you?ll be kicking and screaming 

Watch out now 
You?ll find out 
You?ll cry out 
There?s no one above me 
I play hard 
Don?t run far 
Come back now, I really do like you? 

So get down and get off 
Let me show you what you?ll be missing 
We break up, you break down 
Gonna drag you through this kicking and screaming 
So get down and get off 
You?re not the only one that I?ve been missing 
We break up, you break down 
Gonna drag you through this kicking and screaming 

You?ll be kicking and screaming 
You?ll be kicking and screaming 

Kicking and screaming 

Kicking 
and 
Screaming 

-TamyJudd.- 
		  

auto scroll beats size up size down change color hide chords drawings
tab show chords e-chords YouTube Clip e-chords hide all tabs e-chords go to top tab