Miley Cyrus

Butterfly Fly Away

Miley Cyrus

tabs Beginner beginner

by  PAULLET3

save to print version add songbook text version e-mail correct tuner
chordsukulelecavacokeyboardtabbassdrumsharmonicaflute Guitar Pro
close

there isn't a video lesson for this song

chords

Butterfly Fly Away

	  		Intro: 

------5--------------5--------------5--------------------2-3-2---------| 
--------3--------------3--------------3------------3-3-5---------------| 
----0-----------------------------0------------------------------------| 
----------0--------0-----0--------------0------------------------------| 
-----------------------------------------------------------------------| 
--3--------------2-------------0-------------2-------------------------| 


------5--------------5--------------5----------------------------------| 
--------3--------------3--------------3--------------------------------| 
----0-----------------------------0------------------2-----------------| 
----0-----0--------0-----0--------------0--------0---------------------| 
-----------------------------------------------------------------------| 
------------------2------------0---------------------------------------| 


Verse 


You tucked me in, turned out the light      kept me safe and     sound at night 

-----5------------------5------------------5-------------------5-------------| 
-------3------------------3------------------3-------------------3-----------| 
---0-------------------------------------0-----------------------------------| 
---------0------------0-----0------------------0-------------0------0--------| 
-----------------------------------------------------------------------------| 
-3------------------2-----------------0--------------------2-----------------| 


Little girls             depend on things   like that 

------5-------------------5-------------------5----------------------2-3-2---| 
--------3-------------------3-------------------3--------------3-3-5---------| 
----0---------------------------------------0--------------------------------| 
----------0-------------0-----0-------------------0--------------------------| 
-----------------------------------------------------------------------------| 
--3-------------------2------------------0---------------2-------------------| 


    Brushed my teeth and combed my hair        Had to drive me      everywhere 

------5-------------------5----------------------5------------------5--------| 
--------3-------------------3----------------------3------------------3------| 
----0------------------------------------------0-----------------------------| 
----0-----0-------------0-----0----------------------0------------0------0---| 
-----------------------------------------------------------------------------| 
----------------------2---------------------0-------------------2------------| 

  You were always     there when I looked      back                        You   had 

------5-------------------5------------------5-----------------------2-3-2---| 
--------3-------------------3------------------3---------------3-3-5---------| 
----0--------------------------------------0---------------------------------| 
----------0-------------0-----0------------------0---------------------------| 
-----------------------------------------------------------------------------| 
--3-------------------2-----------------0----------------2-------------------| 


to   do   it    all   alone        Make a living           make a home 

------5-------------------5----------------------5-------------------5---------| 
--------3-------------------3----------------------3-------------------3-------| 
----0------------------------------------------0-------------------------------| 
----0-----0-------------0-----0----------------------0-------------0------0----| 
-------------------------------------------------------------------------------| 
----------------------2---------------------0--------------------2-------------| 

  Mustv'e been     as    hard     as  it could be                            And when I 

------5----------------------5------------------------------------------------| 
--------3----------------------3------------------------------3----2----------| 
----0-------------------------------------------------0-2-----2----2----------| 
----------0----------------0-----0-----------------0--------0----0------------| 
------------------------------------------------------------------------------| 
--3----------------------2---------------------0------------------------------| 

 couldn't    sleep at night      Scared things wouldn't turn out right 

------5---------------------5-------------------5------------------0----------| 
--------3---------------------3-------------------3-----------------3---------| 
----0-----------------------------------------0-------------------------------| 
----------0---------------0-----0-------------------0-----------0--------0----| 
------------------------------------------------------------------------------| 
--3---------------------2------------------0------------------2---------------| 

 You would hold my     hand and sing         to me 

------5------------------5----------------------5-----------------------------| 
--------3------------------3----------------------3---------------2-----------| 
----0-----------------------------------------0---------------------2---------| 
----------0------------0-----0----------------------0-----------2-------------| 
--------------------------------------------------------------0---------------| 
--3------------------2---------------------0----------------------------------| 


Refrain 

 Caterpillar in the tree           How you wonder who you'll be 

--------2-------2-------2-------------------------------------------| 
----3-------3-------3------3-------------3------3------3------------| 
------2-------2-------2------2-------0------0------0------0---------| 
--0------------------------------------0------0------0-------0------| 
-----------------------------------2--------------------------------| 
--------------------------------------------------------------------| 

 Can't go far but you can always dream 

--2---2-0----0-----------------------0--------------| 
---------------3-----3-3----3------0-------3-2------| 
----2------2------0-------0------1---------2-2------| 
-------------------------------2-----------2-2------| 
----------------------------------------------------| 
----------------------------------------------------| 


 Wish you may and wish you might    Don't you worry, hold on tight 

--------2-------2-------2------------------------------------------| 
----3-------3-------3------3-------------3------3------3-----------| 
------2-------2-------2------2-------0------0------0------0--------| 
--0------------------------------------0------0------0-------0-----| 
-----------------------------------2-------------------------------| 
-------------------------------------------------------------------| 


 I promise you there will come a day       Butterfly fly away 

--2---2-0----0-----------------------0--------------------------| 
---------------3-----3-3----3------0-------3-2------------------| 
----2------2------0-------0------1---------2-2------------------| 
-------------------------------2-----------2-2------------------| 
----------------------------------------------------------------| 
----------------------------------------------------------------| 

------5------------------5------------------5-----------------------2-3-2---------| 
--------3------------------3------------------3---------------3-3-5---------------| 
----0-------------------------------------0---------------------------------------| 
----------0------------0-----0------------------0---------------------------------| 
----------------------------------------------------------------------------------| 
--3------------------2-----------------0----------------2-------------------------| 


  Butterfly fly away    (Butterfly fly away)  Got your wings, now you can't stay 

------5-------------------5-------------------5-----------------------2-3-2----| 
--------3-------------------3-------------------3---------------3-3-5----------| 
----0---------------------------------------0----------------------------------| 
----0-----0-------------0-----0-------------------0----------------------------| 
-------------------------------------------------------------------------------| 
----------------------2------------------0-------------------2-----------------| 


   Take those dreams  and make them all  come true 

------5------------------5----------------------5------------------------------| 
--------3------------------3----------------------3---------------------3-2----| 
----0-----------------------------------------0-------------------------2-2----| 
----0-----0------------0-----0----------------------0-----------------0--------| 
-------------------------------------------------------------------------------| 
---------------------2---------------------0------------------------2----------| 


  Butterfly fly away    (Butterfly fly away)   You've been waiting for this day 

------5-------------------5----------------------5-----------------------------| 
--------3-------------------3----------------------3-----------------3-2-------| 
----0------------------------------------------0---------------------2-2-------| 
----------0-------------0-----0----------------------0-------------0-----------| 
-------------------------------------------------------------------------------| 
--3-------------------2---------------------0----------------2-----------------| 

  All along          and know just       what to do 

------5----------------------5----------------------5--------------------| 
--------3----------------------3----------------------3------------2-----| 
----0---------------------------------------------0-----------------2----| 
----------0----------------0-----0----------------------0---------2------| 
-----------------------------------------------------------------0-------| 
--3----------------------2---------------------0-------------------------| 


  Butterfly               Butterfly            Butterfly            Butterfly fly 

------5--------------------5---------------------5-----------------------------| 
--------3--------------------3---------------------3---------------3-2---------| 
----0------------------------------------------0-------------------2-2---------| 
----------0--------------0-----0---------------------0-------------0-0---------| 
-------------------------------------------------------------------------------| 
--3--------------------2--------------------0----------------------------------| 


------5-------------------5----------------------5----------------5--------| 
--------3-------------------3----------------------3----------------3------| 
----0------------------------------------------0---------------------------| 
----------0-------------0-----0----------------------0----------0-----0----| 
---------------------------------------------------------------------------| 
--3-------------------2---------------------0----------------2-------------| 


------5-------------------5----------------------5---------------------2-3-2----| 
--------3-------------------3----------------------3-------------3-3-5----------| 
----0------------------------------------------0--------------------------------| 
----------0-------------0-----0----------------------0--------------------------| 
--------------------------------------------------------------------------------| 
--3-------------------2---------------------0----------------2------------------| 


   Butterfly fly away 

------5-----------------5----------------------5-------------------------5--------| 
--------3-----------------3----------------------3--------------------------3-----| 
----0----------------------------------------0------------------------------------| 
----0-----0-----------0-----0----------------------0------------------0-------0---| 
----------------------------------------------------------------------------------| 
--------------------2---------------------0------------------------2--------------| 


------5----------------------5----------------------5----------------5---------| 
--------3----------------------3----------------------3----------------3-------| 
----0---------------------------------------------0----------------------------| 
----------0----------------0-----0----------------------0----------0-----0-----| 
-------------------------------------------------------------------------------| 
--3----------------------2---------------------0----------------2--------------| 

  Butterfly fly away 

------5----------------------5----------------------5----------------5--------| 
--------3----------------------3----------------------3----------------3------| 
----0---------------------------------------------0---------------------------| 
----------0----------------0-----0----------------------0----------0-----0----| 
------------------------------------------------------------------------------| 
--3----------------------2---------------------0----------------2-------------| 


------5----------------------5----------------------5------------------------5-----| 
--------3----------------------3----------------------3---------------3-2----3-----| 
----0---------------------------------------------0-------------------2-2----0-----| 
----------0----------------0-----0----------------------0----------0---------0-----| 
-----------------------------------------------------------------------------------| 
--3----------------------2---------------------0----------------2------------3-----| 
		  

auto scroll beats size up size down change color hide chords drawings
tab show chords e-chords YouTube Clip e-chords hide all tabs e-chords go to top tab

share