Migos

home > Migos

Bad And Boujee Tab

Migos

Difficulty: nolevelnolevel

by Teusalves

tuner correct add songbook print version text version save to e-mail
chordsukulelecavacokeyboardtabbassdrumsharmonicsflute Guitar Pro
chords

Bad And Boujee

  		
Intro / Verse / Chorus (Guitar 1) 

|----------------------------0-| 
|---------------------------6--| 
|----0--0-0-0-----0--0-0-------| 
|---4---4-4-4----4---4-4---7---| 
|--2------------2---------8----| 
|-0------------0---------------| 

Intro / Verse / Chorus (Guitar 2) 


|-7------7------7------7----| 
|---7-8----7-8----7-8----10-| 
|---------------------------| 
|---------------------------| 
|---------------------------| 
|---------------------------| 
	  

Search Paypal
auto scroll beats size up size down change color hide chords drawings
tab show chords e-chords YouTube Clip e-chords hide all tabs e-chords go to top tab