Michael Franks

home > Michael Franks

Lotus Blossom Tab

Michael Franks

Difficulty: nolevelnolevel

by deivcavalcanti

tuner correct add songbook print version text version save to e-mail
chordsukulelecavacokeyboardtabbassdrumsharmonicsflute Guitar Pro
chords

Lotus Blossom

Year: 1980 - Album: One Bad Habit

  		
 |      x4      |        
e|--------------|-----------|-----5-----------| 
B|--5--4--2--4--|--5--4--2--|--4--5--4--5-----| 
G|--6--4--2--4--|--6--4--2--|--5--6--5--6-----|  
D|--6--4--2--4--|--6--4--2--|--4--5--4--5--7--|     x2 
A|--4-----------|--4-(6)(4)-|--6--7--6--7-----| 
E|-----4--2--4--|-----4--2--|--4--5--4--5--5--| 

                        …I come to you in my song 
                        …So I can touch you again 

LEAD LICK 
e|-------------------------------------9--| 
B|----------------------------------------| 
G|--11b13--11--11b13--9-------------9-----| 
D|-----------------------9/11-9h11--------| 
A|----------------------------------------| 
E|----------------------------------------| 


e|---------------------------------------------| 
B|---------------------------------------------| 
G|--11b13--11--11b13--9------------------------| 
D|---------------------------------------------| 
A|----------------------9/11--7h9--(9/11)--7---| 
E|---------------------------------------------| 


         |          x2          | 
e|-------|--(4)-----------------|-(4)-4---6---8---| 
B|---5---|---5---7---4---5---7--|--5--5---7---9---| 
G|---6---|---6---6---5---4---6--|--6--4---6---8---| 
D|---6---|---6---8---6---6---6--|--6--6---8---10--| 
A|---4---|-------6---6---4------|-----4---6---8---| 
E|-------|---5-------4-------7--|--5--------------| 

And in my dream…            …but then the film just breaks 


BRIDGE 
e|--4---------------------------| 
B|--5--4--2--5----------------5-| 
G|--6--4--2--5----------------6-| 
D|--6--4--2--6----------2-----6-| 
A|--4----------------2----2-2h4-| 
E|-----4--2--4---2h4------------| 

  Lotus blossom 

 |      x4      |        
e|--------------|-----------|-----5-----------| 
B|--5--4--2--4--|--5--4--2--|--4--5--4--5-----| 
G|--6--4--2--4--|--6--4--2--|--5--6--5--6-----|  
D|--6--4--2--4--|--6--4--2--|--4--5--4--5--7--|     x2 
A|--4-----------|--4-(6)(4)-|--6--7--6--7-----| 
E|-----4--2--4--|-----4--2--|--4--5--4--5--5--| 

                          I come to you in my song 

OUTRO RHYTHM 
e|--------------| 
B|--5--4--2--4--| 
G|--6--4--2--4--| 
D|--6--4--2--4--|     x4 
A|--4-----------| 
E|-----4--2--4--| 


OUTRO SOLO 
e|----------------------------------------------------| 
B|----------------------------------------------------| 
G|--b13r11-9--------9---------------------------------| 
D|-----------11--9-----9/11-9/11-9/11-9/11--9---------| 
A|---------------------------------------------11--9--| 
E|----------------------------------------------------| 


e|---------------12------------------------| 
B|------9--12b14----14---------------------| 
G|--11-------------------11b12--11--9------| 
D|------------------------------------(9)--| 
A|-----------------------------------------| 
E|-----------------------------------------| 


e|-----------------12---------------------------------| 
B|--14-14--14--14-----14\12----19b21--19--19b21--17---| 
G|----------------------------------------------------| 
D|----------------------------------------------------| 
A|----------------------------------------------------| 
E|----------------------------------------------------| 


e|----------------------------------------------| 
B|--12b14r12--9---------------------------------| 
G|---------------12-11-9---9b11--9-----9--------| 
D|---------------------------------11-----9/11--| 
A|----------------------------------------------| 
E|----------------------------------------------| 


e|---------12b------------------------------------| 
B|--14-12--------12/14\12--9----------------------| 
G|---------------------------11-9--9--11b13-11-9--| 
D|------------------------------------------------| 
A|------------------------------------------------| 
E|------------------------------------------------| 


e|--14p12----12b-------14p12----12b-----| 
B|--------14-----------------14---------| 
G|--------------------------------------| 
D|--------------------------------------| 
A|--------------------------------------| 
E|--------------------------------------| 



************************************ 

| (n)  Ghost note 
| b    Bend 
| h    Hammer-on 
| /    Slide up 
| r    Release 
| \    Slide down 
| p    Pull-off 

************************************ 
	  

Search Paypal
auto scroll beats size up size down change color hide chords drawings
tab show chords e-chords YouTube Clip e-chords hide all tabs e-chords go to top tab