Metro Station

Shake It

Metro Station

tabs Beginner beginner

by  INDESTRUCTIBLE

save to print version add songbook text version e-mail correct tuner
chordsukulelecavacokeyboardtabbassdrumsharmonicaflute Guitar Pro
close

there isn't a video lesson for this song

chords

Shake It

	  		   Intro 
E----------------------| 
B----------------------| 
G----------------------| 
D-9-9-7-7-7-7--9-9-7-7-| 
A-7-7-5-5-7-7--7-7-5-5-| 
E----------------------| 

   Verse 
E---------------------------| 
B---------------------------| 
G---------------------------| 
D---------------------------| 
A---------------------------| 
E-3-3-3-3-3-0-0-0-0-0-1-1-1-| 

   Bridge 
E---------------------------------| 
B---------------------------------| 
G---------------------------------| 
D---------------------------------| 
A-0-0-----5-5-5-------------0-0-0-| 
E-----3-3-------3-3-3-3-2-2-------| 

  Chorus 
E-------------------------| 
B-------------------------| 
G-------------------------| 
D-7-7-7-7-9-9-9-7-7-7-7-7-| 
A-7-7-7-7-7-7-7-5-5-5-5-5-| 
E-5-5-5-5-----------------| 
		  

auto scroll beats size up size down change color hide chords drawings
tab show chords e-chords YouTube Clip e-chords hide all tabs e-chords go to top tab

share