Metallica

home > Metallica

When A Blind Man Cries Tab

Metallica

Difficulty: ExpertExpert

by bombaXXX

tuner correct add songbook print version text version save to e-mail
chordsukulelecavacokeyboardtabbassdrumsharmonicsflute Guitar Pro
chords

When A Blind Man Cries

  		



eb|-------------------------------------------------------| 
Bb|-------------------------------------------------------| 
Gb|-----------7-9b11 (7x) ?9b11?7 --9b11(7x)--------------| 
Db|-------/9----------------------------------------------| 
Ab|-------------------------------------------------------|  
Eb|-------------------------------------------------------| 

eb|-------------------------------------------------------| 
Bb|-------------------------------------------------------| 
Gb|-------9b11 --7--6--7--7/9--7/6--4---------------------| 
Db|-------------------------------------------------------| 
Ab|-------------------------------------------------------|  
Eb|-------------------------------------------------------| 

eb|-----------------------------------------------------------| 
Bb|-----------------------------------------------------------| 
Gb|----------7--9b11(7x)-9b11--7?9b11-(7)--9b11--(7)-9b11-----| 
Db|-----/9----------------------------------------------------| 
Ab|-----------------------------------------------------------|  
Eb|-----------------------------------------------------------| 

eb|------------------------------------------------------------------| 
Bb|------------------------------------------------------------------| 
Gb|-----9b11-7---7/6?7/6--7/6?7/9?7/6--------------------------------| 
Db|-----------------------------------7--/9--------------------------| 
Ab|------------------------------------------------------------------|  
Eb|------------------------------------------------------------------| 

eb|------------------------------------------------------------------| 
Bb|------------------------------------------------------------------| 
Gb|---16--14--11-----------------------------------------------------| 
Db|--------------14--12--12--14--14--14-?14b16p12-----------12-------| 
Ab|--------------------14-------------------------14--12--14---------|  
Eb|------------------------------------------------------------------| 


eb|------------------------------------------------------------------------| 
Bb|------------------------------------------------------------------------| 
Gb|---16-14-11-------------------------------------------------------------| 
Db|------------14-12--12-14-14-14?14b16--14b16--14b16--14b16--14b16p12-----| 
Ab|-----------------14------------------------------------------------ 14--|  
Eb|------------------------------------------------------------------------| 

eb|---------------------------------------------------------------------19/-| 
Bb|-----12-----12-----12-----12-15-15b17-12-15-15b17-12-15b17-12-15/19------| 
Gb|11h14--11h14--11h14--11h14-----------------------------------------------| 
Db|-------------------------------------------------------------------------| 
Ab|-------------------------------------------------------------------------| 
Eb|-------------------------------------------------------------------------| 

eb|-19-19-19-19-19----------------------------------------------------------| 
Bb|----------------22-19-20-19h20p19---20-20-20p19---22-22-22p19------------| 
Gb|----------------------------------21------------21------------21---------| 
Db|-------------------------------------------------------------------------| 
Ab|-------------------------------------------------------------------------| 
Eb|-------------------------------------------------------------------------| 

eb|---------------------------19-----17-----15-----14-------------------| 
Bb|---20-20-20p19--22-22-22p19--19/17--17/15--15/14--14/12---12---------| 
Gb|--------------21-----------------------------------------------------| 
Db|---------------------------------------------------------------------| 
Ab|---------------------------------------------------------------------|  
Eb|---------------------------------------------------------------------| 

eb|----17-15-14-----------------------------------------------| 
Bb|-------------17-15-14--------------------------------------| 
Gb|----------------------16-14--------------------------------| 
Db|----------------------------17-16-14-----------------------| 
Ab|-------------------------------------17-14-----------------|  
Eb|-----------------------------------------------------------| 
	  

Search Paypal
auto scroll beats size up size down change color hide chords drawings
tab show chords e-chords YouTube Clip e-chords hide all tabs e-chords go to top tab