Metallica

home > Metallica

The Struggle Within Tab

Metallica

Difficulty: AdvancedAdvanced

tuner correct add songbook print version text version save to e-mail
chordsukulelecavacokeyboardtabbassdrumsharmonicsflute Guitar Pro
chords

The Struggle Within

Year: 1991 - Album: Metallica

  		drum intro 
1) 
D--2-2--2-2-2-2-2-2-2--2-2 
A--2-2--2-2-2-2-2-2-2--2-2 
E--0-0--0-0-0-0-0-0-0--0-0 
pm...................... 
 
 
2) 
e---------------------------------- -12~~ 
B-------------------7-8---7-7-8-10~ repeat ----- 
G--------7---7-9-7------9---------- and ----- 
D----7-9-5-9----------------------- end on ----- 
A----5-7---7----------------------- ----- 
E--\\------------------------------ ----- 
 
 
3) 
D--2-2--2-2-2-2-2--2-2--2-2-2-2-2 
A--2-2--2-2-2-2-2--2-2--2-2-2-2-2 
E--0-0--0-0-0-0-0--0-0--0-0-0-0-0 
pm............................. 
Reaching out 
 
 
4) 
D--2-2-5-2-2--2-2-2-4/5-2-2 
A--2-2-5-2-2--2-2-2-4/5-2-2 
E--0-0-3-0-0--0-0-0-2/3-0-0 
pm....................... 
Kicking at 
 
 
5) 
D--2-2--2-2-2-4/5-2-2--2-2-2-4/5-2-2-2-5---5---5 
A--2-2--2-2-2-4/5-2-2--2-2-2-4/5-2-2-2-5---5---5 
E--0-0--0-0-0-2/3-0-0--0-0-0-2/3-0-0-0-3-0-3-0-3 
pm 
What the hell 
 
 
6) 
G------------------------4h5------4h5 
D--5-5-5h7--3-3-5h7--5-5------3-3---- 
A--5-5------3-3------5-5------3-3---- 
E--3-3------1-1------3-3------1-1---- 
mind... 
 
 
7) 
D--4--2--4--2--4--2--4--2 
A--4--2--4--2--4--2--4--2 
E--2--0--2--0--2--0--2--0 
Struggle within... 
 
 
8) 
D---------------------------------------------------------------- 
A--2-2-2-2-2-2-2--2-2-2-2-2-2-2--2-2-2-2-2-2-2-7\6\5-5\4\3--3-3-3 
E--0h3-0-0-0-0-0--0h3-0-0-0-0-0--0h3-0-0-0-0-0-5\4\3-3\2\1--1-1-1 
post solo 
 
 
__________________ 
solo by: craig makepeace ([email protected]) 
 
 
E|-----12-----12-----12-----12---|-----12-12-----12-12------12-----| 
B|-15F--X-15F----15F----15F------|-15F-------15F-----X--15F--------| 
G|-------------------------------|---------------------------------| 
D|-------------------------------|---------------------------------| 
A|-------------------------------|---------------------------------| 
E|-------------------------------|---------------------------------| 
 
|-----12--12-----12-12------12--|-17FR------17F~~~~~~~~~~~~~~~~~~-| 
|-15F--------15F-----X--15F-----|---------------------------------| 
|-------------------------------|--------------------------X\-----| 
|-------------------------------|---------------------------------| 
|-------------------------------|---------------------------------| 
|-------------------------------|---------------------------------| 
 
|-------------------------------|---------------------------------| 
|--/10p8p7--10p7p0--10p8p7------|-10p8p7p0--------10p8p7----------| 
|-------------------------------|-----------9p7p0--------9p7p0----| 
|-------------------------------|---------------------------------| 
|-------------------------------|---------------------------------| 
|-------------------------------|---------------------------------| 
 
|-------------------------------|---------------------------------| 
|-10p8p7------------------------|---------------------------------| 
|--------9p7p0--9p7p0-----------|---------------------------------| 
|----------------------9p7p0----|--9p7p0--------------------------| 
|-------------------------------|---------10---7--------(7)/14----| 
|-------------------------------|---------------------------------| 
 
|-17--19--15--19--14--19----19--|----19----19--14--19--15--19-----| 
|------------------------17-----|-15----17------------------------| 
|-------------------------------|---------------------------------| 
|-------------------------------|---------------------------------| 
|-------------------------------|---------------------------------| 
|-------------------------------|---------------------------------| 
 
|--19p17p15-17p15p14h15--14-------|---------------------------------------| 
|----------------------17--17-----|-15p14h15----14---15---17/19---X---8/--| 
|---------------------------------|----------16---------------------------| 
|---------------------------------|---------------------------------------| 
|---------------------------------|---------------------------------------| 
|---------------------------------|---------------------------------------| 
 
|--------------------------------|---------------------------------| 
|-15-18p15-14h17p15-18p15--17p14-|-18p15----17p14----18-18F--18----| 
|---------X--------16----16----16|-------16-------16---------------| 
|--------------------------------|---------------------------------| 
|--------------------------------|---------------------------------| 
|--------------------------------|---------------------------------| 
 
|-------------------------------|---------------------------------| 
|-------------------------------|---------------------------------| 
|------------3------------------|---------3-----------------------| 
|--5'p0-5'p0----5---3-----------|--3---5------5-------(5)/--------| 
|----------------------5--------|---------------------------------| 
|-------------------------------|---------------------------------| 
 
wah==================================================wah off 
|-------------------------------|---------------------------------| 
|---------14--14---14---14------|-(14)--14------14-----14---------| 
|---------14--14---14---14------|-(14)--14------14-----14---------| 
|-------------------------------|---------------------------------| 
|-------------------------------|---------------------------16p14-| 
|-------------------------------|---------------------------------| 
 
|-------------------------------|---------------------------------| 
|----14------16-----------------|-------14--17p14------------16'--| 
|---(14)-----16---14-------14---|--16F------------16--14--14-16F--| 
|-16-------------------16-------|-----------------------16--------| 
|-------------------------------|---------------------------------| 
|-------------------------------|---------------------------------| 
 
|-------------------------------|---------------------------------| 
|-(16)------------------16'-----|--(16)---------------------------| 
|-(16)---14--------14---16F-----|--(16)---14----------------------| 
|-------------16----------------|--------------16------16---------| 
|-------------------------------|---------------------------------| 
|-------------------------------|---------------------------------| 
 
|-------------------------------|---------------------------------| 
|-------------------------------|---17~~~~~~~~~~~~~~~~~~~~~~~~~~--| 
|---------------14-----14--16F--|-------------(16)----------------| 
|--(16)--14h16------16----------|---------------------------------| 
|-------------------------------|---------------------------------| 
|-------------------------------|---------------------------------| 
 
|-18p15--15----------------------|---------------------------------| 
|------18--18-15-18p15----15-----|---------------------------------| 
|----------------------18---17-15|17p15-15-15----------------------| 
|--------------------------------|------------17-15-17p15---15-----| 
|--------------------------------|------------------------17--17-15| 
|--------------------------------|---------------------------------| 
 
|--------------------------------|---------------------------------| 
|--------------------------------|-------15------15-------(15)\----| 
|--------------------------------|-17----15------15-------(15)\----| 
|-------------------------15^17--|(17)-----------------------------| 
|--------------------------------|---------------------------------| 
|--------------------------------|---------------------------------| 
 
 
_______________________________________________________ 
Contribuição: Felipe Gonçales([email protected]) 

	  

Search Paypal
auto scroll beats size up size down change color hide chords drawings
tab show chords e-chords YouTube Clip e-chords hide all tabs e-chords go to top tab