Metallica

home > Metallica

The Small Hours Tab

Metallica

Difficulty: EasyEasy

tuner correct add songbook print version text version save to e-mail
chordsukulelecavacokeyboardtabbassdrummharmonicsflute Guitar Pro
chords

The Small Hours

Year: 1988 - Album: The Metallic-Era, Vol. 2

  		 
 INTRO: 
 E-|---0|------0---------0-----|--|--------0-------0--------0-|--| 
 B-|----|--6--------6---------6|--|---4--------4--------4-----|--| 
 G-|-8--|8---8----8---8----8---|x2|-7---7----7---7----7---7---|x2| 
 D-|----|----------------------|--|---------------------------|--| 
 A-|----|----------------------|--|---------------------------|--| 
 E-|----|----------------------|--|---------------------------|--| 
 
     Main Riff 
 E-|----------------------|--|---------|------------------------| 
 B-|----------------------|--|---------|------------------------| 
 G-|----------------------|--|---------|repeat-a-bunch-of-times-| 
 D-|----------------------|x3|---------|------------------------| 
 A-|-2-2--4/54/5--2-2--5-|--|-5-4--4-3|------------------------| 
 E-|-0-0--2/32/3--0-0--3-|--|-3-2--2-1|------------------------| 
 
     during verse play main riff 4 times then: 
 E-|-----------------------| 
 B-|-----------------------| 
 G-|-----------------------| 
 D-|-5---------3-----------| 
 A-|-5---------3-----------| 
 E-|-5---------3-----------| 
     then main riff 2x 
 
 E-|---------------------------------------| 
 B-|---------------------------------------| 
 G-|---------------------------------------| 
 D-|---------------------------------------| 
 A-|-0-0-0------0--3--------0-----0------3-| 
 E-|-0-0-0---5-----------------5-------5-3-| 
 
 
 E-|-------------------------------------------------------| 
 B-|-------------------------------------------------------| 
 G-|-----------------------------------------7------7----7-| 
 D-|-----------------------------------------7------7----7-| 
 A-|-0--0--0-------0--3-------0-----0--------5------5----5-| 
 E-|-0--0--0----5----------------5-------5-----------------| 
 
     Play intro with: 
 E-|-------------------| 
 B-|-------------------| 
 G-|-------------------| 
 D-|-1-----------1-1---| 
 A-|-1-----------1-1---| 
 E-|-1-----------1-1---| 
 
     Rythem for the Solo 
 E-|-----------------------------------------------------------| 
 B-|-----------------------------------------------------------| 
 G-|-----------------------------------------------------------| 
 D-|-----------------------------------------------------------| 
 A-|-------------------------------------------6------------8--| 
 E-|-0---0-0-0----0-0-0----0-0-0---0-0-0---0-0-6-----0--0-0-8--| 
 
 
 E-|-------------------------------------------------------------------| 
 B-|-------------------------------------------------------------------| 
 G-|-------------------------------------------------------------------| 
 D-|-------------------------------------------------------------------| 
 A-|-----------------------------------------------6-------------------| 
 E-|-0---0-0-0----0-0-0----0-0-0-----0-0-0-----0-0-6-------0--6--5--3--| 
 
     After the solo play this 
 E-|-------------------------------------------------------------| 
 B-|-------------------------------------------------------------| 
 G-|-------------------------------------------------------------| 
 D-|-------------------------------------------------------------| 
 A-|----------------------------------------------6------------8-| 
 E-|-0--0-0-0---0-0-0-----0-0-0-----0-0-0-----0-0-6-----0--0-0-8-| 
 
 
 E-|----------------------------------------------------------| 
 B-|----------------------------------------------------------| 
 G-|----------------------------------------------------------| 
 D-|----------------------------------------------------------| 
 A-|----------------------------------------7-------------9---| 
 E-|-0---0-0-0--0-0-0----0-0-0--0-0-0---0-0-7-----0---0-0-9---| 
 
 
 E-|-----------------------------------------------------------| 
 B-|-----------------------------------------------------------| 
 G-|-----------------------------------------------------------| 
 D-|-----------------------------------------------------------| 
 A-|-----------------------------------------8--------------10-| 
 E-|-0---0-0-0--0-0-0----0-0-0---0-0-0---0-0-8------0---0-0-10-| 
 
     Then end with intro; and this 
 E-|-------------------------| 
 B-|-------------------------| 
 G-|-------------------------| 
 D-|-1------1-1----0-------0-| 
 A-|-1------1-1----0-------0-| 
 E-|-1------1-1----0-------0-| 

	  

Search Paypal
auto scroll beats size up size down change color hide chords drawings
tab show chords e-chords YouTube Clip e-chords hide all tabs e-chords go to top tab