Metallica

home > Metallica

Nothing Else Maters Tab

Metallica

Difficulty: BeginnerBeginner

by WhatsBaraNofu

tuner correct add songbook print version text version save to e-mail
chordsukulelecavacokeyboardtabbassdrumsharmonicsflute Guitar Pro
chords

Nothing Else Maters

  		e|------------------------------------------------------------------- 
b|-15---------------------------------------------------------------- 
g|-14b(16)-14b(16)r14--12-14--12p11h12p11------11-------- 
d|----------------------------------------------------14-----12-14- 
a|------------------------------------------------------------------- 
e|-------------------------------------------------------------------{/code} 
 
e|---------------------------12---------------12---------------- 
b|----------------------12----------------12-----15-12-----12- 
g|-12-14-12-14b(16)----------14b(16)----------------15----- 
d|---------------------------------------------------------------- 
a|---------------------------------------------------------------- 
e|----------------------------------------------------------------{/code} 
 
e|-------------------------------15-14-------15-14-15b(17)-15-14-15-14-12 
b|--------------14-14-13-12-----------12-------------------------------------- 
g|-15-14-12--14-14-13-12----------------------------------------------------- 
d|-------------------------------------------------------------------------------- 
a|-------------------------------------------------------------------------------- 
e|--------------------------------------------------------------------------------{/code} 
 
e|----15-14-12------------------------------------------------------12- 
b|-12-------------------------15---------------------------------12----- 
g|----------------12-14-12--14b(16)r14p12-----12-14b(16)--------- 
d|-----------------------------------------------14---------------------- 
a|------------------------------------------------------------------------ 
e|-------------------------------------------------------------------------{/code} 
 
e|------------------------------------------------------------ 
b|-15b(17)~r15p12-15b(17)-12-15-12-7-5s7s5-------- 
g|------------------------------------------------------------ 
d|------------------------------------------------------------ 
a|------------------------------------------------------------ 
e|------------------------------------------------------------{/code} 
 
 

	  

Search Paypal
auto scroll beats size up size down change color hide chords drawings
tab show chords e-chords YouTube Clip e-chords hide all tabs e-chords go to top tab