Metallica

home > Metallica

Holier Than Thou Tab

Metallica

Difficulty: BeginnerBeginner

tuner correct add songbook print version text version save to e-mail
chordsukulelecavacokeyboardtabbassdrumsharmonicsflute Guitar Pro
chords

Holier Than Thou

Year: 1991 - Album: Metallica

  		 
Tempo=166 
				      4 times 
	     Rhy Fig 1		end Rhy Fig 1 
|----------||-------------------------------|| 
|----------||-------------------------------|| 
|----------||o-----------------------------o|| 
|-------2--||o--(2)---------------------2--o|| 
|-------2--||---(2)---------------------2---|| 
|-------0--||---(0)-0--0-0-0--0-0-0--0--0---|| 
		    PM................| 
 
 
 w/ Rhy Fig 1 (10 times) 
|---------------|--------------------|--------------------| 
|---------------|--------------------|--------------------| 
|---------------|--------------------|--------------------| 
|------------5--|--(5)------7--8--8--|--(8)\-----------5--| 
|------------5--|--(5)------7--8--8--|--(8)\-----------5--| 
|---------------|--------------------|--------------------| 
 with talkbox 
 
|--------------------|--------------------|--------------------| 
|--------------------|--------------------|--------------------| 
|--------------------|--------------------|--------------------| 
|--(5)------7--8--8--|--(8)\-----------5--|--(5)------7--8--8--| 
|--(5)------7--8--8--|--(8)\-----------5--|--(5)------7--8--8--| 
|--------------------|--------------------|--------------------| 
 
 
|--------------------|--------------------|----------------|--------------| 
|--------------------|--------------------|----------------|--------------| 
|--------------------|--------------------|----------------|--------------| 
|--(8)\-----------5--|--(5)------7--8-----|----------------|--------------| 
|--(8)\-----------5--|--(5)------7--8--7--|--(7)-----------|--------------| 
|--------------------|-----------------7--|--(7)-----------|--------------| 
 
 
  w/ Rhy Fig 1 (9 times) 
||-----------------------|---------------------------| 
||-----------------------|---------------------------| 
||o----------------------|---------------------------| 
||o----------------------|---------------------------| 
||--0-h1-----0--1--------|------0--1-----0--1--------| 
||--------3--------3--0--|-(0)--------3--------2--3~-| 
	  PM........|		      PM........| 
 
		    ______________  ______________ 
		   |1.		  ||2. 
|------------------|--------------||--------------|--------------| 
|------------------|--------------||--------------|--------------| 
|------------------|-------------o||--------------|--------------| 
|------------------|-------------o||--------------|--------------| 
|------------------|--------------||--------------|--------------| 
|--(3)-~-~-----3\--|--------------||--------------|--------------| 
 
 
|---------------------------|------------------------------| 
|---------------------------|------------------------------| 
|---------------------------|------------------------------| 
|-(2)--------------------2--|-(2)-----------------------2--| 
|-(2)--0--1-----0--1-----2--|-(2)--0-h1-----0--1--0-----2--| 
|-(0)--------3--------3--0--|-(0)--------3-----------3--0--| 
       PM..............|		 PM...........| 
 
 
|-------------------------|-----------------------------| 
|-------------------------|-----------------------------| 
|-------------------------|-----------------------------| 
|-(2)---------------------|--------------------------2--| 
|-(2)--0-h1-----0--1------|-----0-h1-----0--1--0-----2--| 
|-(0)--------3--------3-~-|--0--------3-----------3--0--| 
	     PM.....|		      PM...........| 
 
 
|-------------------------|-----------------------------| 
|-------------------------|-----------------------------| 
|-------------------------|-----------------------------| 
|-(2)---------------------|--------------------------2--| 
|-(2)--0-h1-----0--1------|-----0-h1-----0--1--0-----2--| 
|-(0)--------3--------3-~-|--0--------3-----------3--0--| 
	     PM.....|		      PM...........| 
 
 
 
|-------------------------|-----------------------------| 
|-------------------------|-----------------------------| 
|-------------------------|-----------------------------| 
|-(2)---------------------|--------------------------2--| 
|-(2)--0-h1-----0--1------|-----0-h1-----0--1--0-----2--| 
|-(0)--------3--------3-~-|--0--------3-----------3--0--| 
	     PM.....|		      PM...........| 
 
 Rhy Fill 1					      end Rhy Fill 1 
|------------------------|----------------|-------------------------| 
|------------------------|----------------|-------------------------| 
|------------------------|----------------|-------------------------| 
|-(2)-----------------2--|-(2)------------|-(2)-----------------5---| 
|-(2)--0-h1-----0--1--2--|-(2)------------|-(2)--0--1-----0--1--5---| 
|-(0)--------3--------0--|-(0)------------|-(0)--------3--------3---| 
	     PM.....|				 PM...........| 
 
1st verse 
Rhy Fig 2 
|----------------|-------------------------|----------------| 
|----------------|-------------------------|----------------| 
|----------------|-------------------------|----------------| 
|-(5)------------|-(5)-----------------2---|-(2)------------| 
|-(5)------------|-(5)--0--1-----0--1--2---|-(2)------------| 
|-(3)------------|-(3)--------3--------0---|-(0)------------| 
			PM...........| 
 
|-------------------------|----------------|-------------------------| 
|-------------------------|----------------|-------------------------| 
|-------------------------|----------------|-------------------------| 
|-(2)-----------------5---|-(5)------------|-(5)-----------------2---| 
|-(2)--0--1-----0--1--5---|-(5)------------|-(5)--0--1-----0--1--2---| 
|-(0)--------3--------3---|-(3)------------|-(3)--------3--------0---| 
       PM...........|				  PM...........| 
 
 
							  end Rhy Fig 2 
|----------------|------------------------|----------------------------| 
|----------------|------------------------|----------------------------| 
|----------------|------------------------|----------------------------| 
|-(2)------------|-(2)--------------------|-------------------------2--| 
|-(2)------------|-(2)--0--1-----0--1-0h1-|-(1)--1--1--1-0h1--0-----2--| 
|-(0)------------|-(0)--------3-----------|----------------------3--0--| 
			PM...........| 
 
 Rhy Fill 2							end Rhy Fill 2 
|----------------------------|----------------------------|------------------| 
|----------------------------|----------------------------|------------------| 
|----------------------------|----------------------------|------------------| 
|-(2)---------------------2--|-(2)---------------------2--|-(2)-----------5--| 
|-(2)---------------------2--|-(2)---------------------2--|-(2)-0-1---0-1-5--| 
|-(0)-0--0-0-0--0-0-0--0--0--|-(0)-0--0-0-0--0-0-0--0--0--|-(0)-----3-----3--| 
      PM................|	   PM................|		PM.......| 
 
 
w/ Rhy Fig 2 
 
Who are you? Where ya been? Where ya from? 
Gossip burning on the tip of your tongue. 
Judge not lest ye be judged yourself. 
 
Chorus 
 
S/S 
 
|---------------------------|-----------------------------| 
|---------------------------|-----------------------------| 
|---------------------------|-----------------------------| 
|-(2)--------------------2--|-(2)-------------------------| 
|-(2)--0-h1-----0--1-----2--|-(2)--0-h1-----0--1--0-------| 
|-(0)--------3--------3--0--|-(0)--------3-----------3-~--| 
	     PM........|		 PM...........| 
 
 
|--------------------------|------------------------------| 
|--------------------------|------------------------------| 
|--------------------------|------------------------------| 
|--2--------------------2--|-(2)-----------------------2--| 
|--2--0-h1-----0--1-----2--|-(2)--0-h1-----0--1--0-----2--| 
|--0--------3--------3--0--|-(0)--------3-----------3--0--| 
	    PM........|			PM...........| 
 
 
|---------------------------|-----------------------------| 
|---------------------------|-----------------------------| 
|---------------------------|-----------------------------| 
|-(2)--------------------2--|-(2)-------------------------| 
|-(2)--0-h1-----0--1-----2--|-(2)--0-h1-----0--1--0-------| 
|-(0)--------3--------3--0--|-(0)--------3-----------3-~--| 
	     PM........|		 PM...........| 
 
 
|--------------------------|------------------------------| 
|--------------------------|------------------------------| 
|--------------------------|------------------------------| 
|--2--------------------2--|-(2)-----------------------2--| 
|--2--0-h1-----0--1-----2--|-(2)--0-h1-----0--1--0-----2--| 
|--0--------3--------3--0--|-(0)--------3-----------3--0--| 
	    PM........|			PM...........| 
 
 
Rhy Fig 1 (3 times) 
 
	     To Coda 
You know not! 
 
 
Then play Rhy Fill 1 
 
 
2nd verse 
w/ Rhy Fig 2 
 
Over the last two bars of Rhy Fig 2 (played by Gtrs 1 & 2) 
a third guitar enters and plays the following: 
 
				   w/ Rhy Fill 2 
|----------------|----------------|---------------|----------------| 
|----------------|----------------|---------------|----------------| 
|----------7--b--|--b9------------|--------r7--7--|-(7)------------| 
|----------------|--//------------|---------------|------------5-~-| 
|----------------|----------------|---------------|----------------| 
|----------------|----------------|---------------|----------------| 
 w/ wah	  grad. bend and trem. pick 
 
 
|--------------------|-------------------|-----------------------------| 
|--------------------|-------------------|------/12--------------------| 
|--------------------|-------------------|------/12----12--------------| 
|-(5)-~--5-~-~-~-----|-------------------|-----------------14--12--14--| 
|-----------------7--|-(7)-~-~-~-~-~-~-~-|-(7)-------------------------| 
|--------------------|-------------------|-----------------------------| 
 
 
|--------------------|----------------------|-------------------| 
|--------------------|----------------------|-------------------| 
|--------------------|------------------12--|-(12)--------------| 
|-(14)-~-~-~-~-~-~-~-|-(14)-~-~-~-~-~-~-----|-------------------| 
|--------------------|----------------------|-------------------| 
|--------------------|----------------------|-------------------| 
 
 
|---------------------------------------|--------------------| 
|---------------------------------------|--------------------| 
|-(12)--------14b16r14--14b16r14p12-----|--------------------| 
|-----------------------------------14~-|-(14)-~-~-~-~-~-~-~-| 
|---------------------------------------|--------------------| 
|---------------------------------------|--------------------| 
 
						  D.S. al Coda 
						     Gtr 3 out 
|-----------------------|-------------------------------------| 
|-----------------------|-------------------------------------| 
|-----------------------|-------------------------------------| 
|-(14)-~-~-~-~-p12--14--|-(14)--12----------------------------| 
|-----------------------|-----------14-12h14--13--12--10--12\-| 
|-----------------------|---------------------------------12\-| 
 
Coda 
 
|------------------------|-----------------|-----------------------| 
|------------------------|-----------------|-----------------------| 
|------------------------|-----------------|-----------------------| 
|-(2)-----------------2--|-(2)----------5--|-(5)-------------------| 
|-(2)--0-h1-----0--1--2--|-(2)----------5--|-(5)----------4--3--2--| 
|-(0)--------3--------0--|-(0)----------3--|-(3)----------2--1--0--| 
	     PM.....|					  PM..| 
 
Interlude 
 
|------------------------|---------------------------| 
|------------------------|---------------------------| 
|------------------------|---------------------------| 
|------5-----5--7--------|---------5-----8--7--5-----| 
|--5h7----7--------8--7--|-(7)-5h7----7-----------7--| 
|------------------------|---------------------------| 
 
 
|---------------------------|---------------------------| 
|---------------------------|---------------------------| 
|---------------------------|---------------------------| 
|---------5-----5--7--------|---------5-----8--7--5-----| 
|-(7)-5h7----7--------8--7--|-(7)-5h7----7-----------7--| 
|---------------------------|---------------------------| 
 
 
||----------------------------|---------------------------|----------------|| 
||----------------------------|---------------------------|----------------|| 
||o---------------------------|---------------------------|---------------o|| 
||o---------5-----5--7--------|---------5-----8--7--5-----|------5--7-----o|| 
||--(7)-5h7----7--------8--7--|-(7)-5h7----7-----------8--|-(8)--------7---|| 
||----------------------------|---------------------------|----------------|| 
 
 
 Gtr 4 
|---------------------------|---------------------------| 
|---------------------------|---------------------------| 
|---------4-----4--5--------|---------4-----7--5--4-----| 
|-----4h5----5--------7--5--|-(5)-4h5----5-----------7--| 
|---------------------------|---------------------------| 
|---------------------------|---------------------------| 
| 
|Gtr 3 
|---------------------------|---------------------------| 
|---------------------------|---------------------------| 
|---------------------------|---------------------------| 
|---------5-----5--7--------|---------5-----8--7--5-----| 
|-(7)-5h7----7--------8--7--|-(7)-5h7----7-----------8--| 
|---------------------------|---------------------------| 
 
 
|--------------------------|-------------------------| 
|--------------------------|--------------------5----| 
|------4--5-------4--5--4--|-(4)--5--7--4----5-------| 
|-(7)--------7-------------|-------------------------| 
|--------------------------|-------------------------| 
|--------------------------|-------------------------| 
| 
| 
|--------------------------|-------------------------| 
|--------------------------|-------------------------| 
|--------------------------|---------4----------4----| 
|---------7--4----5--7--5--|-(5)--7-----6----7-------| 
|-(8)--5-------------------|-------------------------| 
|--------------------------|-------------------------| 
 
 
|--------------|-------------------------| 
|-(5)----------|-(5)-----------------12--| 
|--------------|-------------------------| 
|--------------|-------------------------| 
|--------------|-------------------------| 
|--------------|-------------------------| 
| 
| 
|--------------|-------------------------| 
|--------------|-------------------------| 
|-(4)----------|-(4)-----------------12--| 
|--------------|-------------------------| 
|--------------|-------------------------| 
|--------------|-------------------------| 
 
 
Solo: 
 
|--------------------|-------------------------------| 
|--12b13-------------|---------10-----------10--11---| 
|--12b14-----------9-|-(9)-~-------12p9-12---9--10---| 
|--------------------|-------------------------------| 
|--------------------|-------------------------------| 
|--------------------|-------------------------------| 
	grad. bend 
 
 
|----------------------------------------|--10b12------~-~-~------12--| 
|-10b12r10p8---10b12r10p8---10b12r10p8---|-------------------/12------| 
|------------9------------9------------9-|----------------------------| 
|----------------------------------------|----------------------------| 
|----------------------------------------|----------------------------| 
|----------------------------------------|----------------------------| 
 
 
|--15p12-------15p12-15p12-------15p12-15p12-------| 
|--------15p12-------------15p12-------------15p12-| 
|--------------------------------------------------| 
|--------------------------------------------------| 
|--------------------------------------------------| 
|--------------------------------------------------| 
 
|--15b17---15b17---15b17---15b17--15-|--12----12~--15-12~---12--12-12-| 
|------------------------------------|--------------------------------| 
|------------------------------------|--------------------------------| 
|------------------------------------|--------------------------------| 
|------------------------------------|--------------------------------| 
|------------------------------------|--------------------------------| 
 
|-15p12-12-12-15p12----12----------------|------------------------10--| 
|-------------------15----15bb17--15b17--|-------8--10--11--8---------| 
|----------------------------------------|---/9-----------------------| 
|----------------------------------------|----------------------------| 
|----------------------------------------|----------------------------| 
|----------------------------------------|----------------------------| 
 
|-(10)--8----------------------|----14b15r14p12-14----12-14p12-----| 
|----------11--8--10--11--8~---|-------------------------------15--| 
|------------------------------|-----------------------------------| 
|------------------------------|-----------------------------------| 
|------------------------------|-----------------------------------| 
|------------------------------|-----------------------------------| 
 
|--12-----------12--------12-------12--| 
|------15b17-------15b17-----15b17-----| 
|--------------------------------------| 
|--------------------------------------| 
|--------------------------------------| 
|--------------------------------------| 
 
|--------12-------12-------12-------12-------12------12-12-| 
|--15b17----15b17----15b17----15b17----15b17----15b17------| 
|----------------------------------------------------------| 
|----------------------------------------------------------| 
|----------------------------------------------------------| 
|----------------------------------------------------------| 
 
|--12h15p12-------12h15p12-------12h15p12-------12h15p12-------| 
|-----------15p12----------15p12----------15p12----------15p12-| 
|--------------------------------------------------------------| 
|--------------------------------------------------------------| 
|--------------------------------------------------------------| 
|--------------------------------------------------------------| 
 
|--15p12-14-14-17p15-14-15-19p17p15-19b21-20b22-22b24-|---------------5--| 
|-----------------------------------------------------|---------------5--| 
|-----------------------------------------------------|------------------| 
|-----------------------------------------------------|------------------| 
|-----------------------------------------------------|------------------| 
|-----------------------------------------------------|------------------| 
 
|-(5)\----------7--|-(7)\------------8--|-(8)------------12--|-(12)\---------| 
|-(5)\----------7--|-(7)\------------8--|-(8)------------12--|-(12)\---------| 
|------------------|--------------------|--------------------|---------------| 
|------------------|--------------------|--------------------|---------------| 
|------------------|--------------------|--------------------|---------------| 
|------------------|--------------------|--------------------|---------------| 
 
Gtr 1 
|-----------------------------|-------------------------| 
|-----------------------------|-------------------------| 
|-----------------------------|-------------------------| 
|--------------------------2--|-(2)---------------------| 
|-----0-h1-----0--1--0-----2--|-(2)--0-h1-----0--1------| 
|--0--------3-----------3--0--|-(0)--------3--------3-~-| 
	    PM...........|		   PM.....| 
 
 
Gtrs 1 & 2 
|-----------------------------|-------------------------| 
|-----------------------------|-------------------------| 
|-----------------------------|-------------------------| 
|--------------------------2--|-(2)---------------------| 
|-----0-h1-----0--1--0-----2--|-(2)--0-h1-----0--1------| 
|--0--------3-----------3--0--|-(0)--------3--------3-~-| 
	    PM...........|		   PM.....| 
 
 
Gtrs 1, 2 & 3 
 
|-----------------------------|-------------------------| 
|-----------------------------|-------------------------| 
|-----------------------------|-------------------------| 
|--------------------------2--|-(2)---------------------| 
|-----0-h1-----0--1--0-----2--|-(2)--0-h1-----0--1------| 
|--0--------3-----------3--0--|-(0)--------3--------3-~-| 
	    PM...........|		   PM.....| 
 
 
|-----------------------------|------------------------| 
|-----------------------------|------------------------| 
|-----------------------------|------------------------| 
|--------------------------2--|-(2)-----------------2--| 
|-----0-h1-----0--1--0-----2--|-(2)--0-h1-----0--1--2--| 
|--0--------3-----------3--0--|-(0)--------3--------0--| 
	    PM...........|		   PM.....| 
 
 
|---------------------------|-----------------------------| 
|---------------------------|-----------------------------| 
|---------------------------|-----------------------------| 
|-(2)--------------------2--|-(2)-------------------------| 
|-(2)--0-h1-----0--1-----2--|-(2)--0-h1-----0--1--0-------| 
|-(0)--------3--------3--0--|-(0)--------3-----------3-~--| 
	     PM........|		 PM...........| 
 
 
|-----------------------------|------------------------| 
|-----------------------------|------------------------| 
|-----------------------------|------------------------| 
|--------------------------2--|-(2)-----------------2--| 
|-----0-h1-----0--1--0-----2--|-(2)--0-h1-----0--1--2--| 
|--0--------3-----------3--0--|-(0)--------3--------0--| 
	    PM...........|		   PM.....| 
 
 
|----------------------------|-----------------|-----------------| 
|----------------------------|-----------------|-----------------| 
|----------------------------|-------.-/-------|-------.-/-------| 
|-(2)---------------------2--|--------/.-------|--------/.-------| 
|-(2)---------------------2--|-----------------|-----------------| 
|-(0)-0--0-0-0--0-0-0--0--0--|-----------------|-----------------| 
      PM................| 
 
 
|-------------------------|----------------------| 
|-------------------------|----------------------| 
|-------------------------|----------------------| 
|-(2)-----------------2---|-(2)------------------| 
|-(2)--0--1-----0--1--2---|-(2)------------------| 
|-(0)--------3--------0---|-(0)------------------| 
       PM...........| 
 
 
|-------------------------|----------------------|----------------------| 
|-------------------------|----------------------|----------------------| 
|-------------------------|----------------------|----------------------| 
|-(2)-----------------5---|-(5)------------------|-(5)--------2--2------| 
|-(2)--0--1-----0--1--5---|-(5)------------------|-(5)--0--1--2--2------| 
|-(0)--------3--------3---|-(3)------------------|-(3)-----0--0--0------| 
       PM..............| 
 
 
 
_______________________________________________________ 
Contribuição: Lucas de Carvalho Luis([email protected]) 

	  

Search Paypal
auto scroll beats size up size down change color hide chords drawings
tab show chords e-chords YouTube Clip e-chords hide all tabs e-chords go to top tab