Metallica

home > Metallica

Hardwired Tab

Metallica

Difficulty: nolevelnolevel

by ubirbomfim

tuner correct add songbook print version text version save to e-mail
chordsukulelecavacokeyboardtabbassdrumsharmonicsflute Guitar Pro
chords

Hardwired

  		
Intro 

e||------------------------------|| 
B||------------------------------|| 
G||------------------------------|| 
D||------------------------------|| x4 
A||------------------------------|| 
E||--0-0-0--0-0-0--0-0-0--0-0-0--|| 


e||------------------------|-----------------------------|| 
B||------------------------|-----------------------------|| 
G||------------------------|-----------------------------|| 
D||------------------------|-----------------------------|| x2 
A||-----------9-8----------|-----------------------------|| 
E||--0-0-0--0-7-6-0--0-0-0-|-0-0-0--0-0-0--0-0-0--0-0-0--|| 


e||---------------------|---------------------------|| 
B||---------------------|---------------------------|| 
G||---------------------|---------------------------|| 
D||---------------------|---------------------------|| x2 
A||-----------9-8-----8-|-7-------------------------|| 
E||--0-0-0--0-7-6-0-0-6-|-5-0--0-0-0--0-0-0--0-0-0--|| 


e||---------------------|---------------------------|| 
B||---------------------|---------------------------|| 
G||---------------------|---------------------------|| 
D||---------------------|---------------------------|| x2 
A||-----------9-8-----8-|-7-------------------------|| 
E||--0-0-0--0-7-6-----6-|-5-0--0-0-0--0-0-0--0-0-0--|| 


e|------------------|-------------|----------------|-------------| 
B|------------------|-------------|----------------|-------------| 
G|------------------|-------------|----------------|-------------| 
D|------------------|-------------|----------------|-------------| 
A|----------9-8---8-|-7---9-8---8-|-7--------------|-2---9-8-----| 
E|-0-0-0--0-7-6---6-|-5---7-6---6-|-5--3-5-6-5-3-5-|-0---7-6-----| 


Main Riff 

e||--------------------------|-------------------|| 
B||--------------------------|-------------------|| 
G||--------------------------|-------------------|| 
D||--------------------------|-------------------|| x4 
A||--2---------9-8---------8-|-7-----------------|| 
E||--0-0-0-0-0-7-6-0-0-0-0-6-|-5-0-0-3-5-6-5-3-5-|| 


e|---------------| 
B|---------------| 
G|---------------| 
D|---------------| 
A|-7--7--7--7----| 
E|-5--5--5--5----| 


Verse 

e||--------------------------|--------------------------------|| 
B||--------------------------|--------------------------------|| 
G||--------------------------|--------------------------------|| 
D||--------------------------|--------------------------------|| x3 
A||--2---------9-8---------8-|-7------------------------------|| 
E||--0-0-0-0-0-7-6-0-0-0-0-6-|-5-0-0-0-0-0-0-0-0-0-0-0-0-0-0--|| 


e|-------------------------|---------------------------| 
B|-------------------------|---------------------------| 
G|-------------------------|---------------------------| 
D|-------------------------|---------------------------| 
A|-2---------9-8---------8-|-7-------------------------| 
E|-0-0-0-0-0-7-6-0-0-0-0-6-|-5-0-0-3--5--6--5--3--5----| 


Chorus 

e||-----------|------------|| 
B||-----------|------------|| 
G||-----------|------10----|| 
D||--7--------|-8----10----|| x2 
A||--7--------|-8----8-----|| 
E||--5--------|-6----8-----|| 


e|----------|--------------| 
B|----------|--------------| 
G|----------|--------------| 
D|-7--------|--------------| 
A|-7--------|-3--3--5------| 
E|-5--------|-1--1--3------| 


e|----------------------------|---------------| 
B|----------------------------|---------------| 
G|----------------------------|---------------| 
D|----------------------------|---------------| 
A|----------------------------|-2--9--8-------| 
E|-0-0-0--0-0-0--0-0-0--0-0-0-|-0--7--6-------| 


Riff 

e||--------------------------|-----------------------|| 
B||--------------------------|-----------------------|| 
G||--------------------------|-----------------------|| 
D||--------------------------|-----------------------|| x4 
A||--2---------9-8---------8-|-7---------------------|| 
E||--0-0-0-0-0-7-6-0-0-0-0-6-|-5-0-0-3-5-6-5-3-5-----|| 


e|---------------| 
B|---------------| 
G|---------------| 
D|---------------| 
A|-7--7--7--7----| 
E|-5--5--5--5----| 


verse 2 

e||--------------------------|-----------------------------------|| 
B||--------------------------|-----------------------------------|| 
G||--------------------------|-----------------------------------|| 
D||--------------------------|-----------------------------------|| x3 
A||--2---------9-8---------8-|-7---------------------------------|| 
E||--0-0-0-0-0-7-6-0-0-0-0-6-|-5-0-0-0-0-0-0-0-0-0-0-0-0-0-0-----|| 


e|-------------------------|---------------------------| 
B|-------------------------|---------------------------| 
G|-------------------------|---------------------------| 
D|-------------------------|---------------------------| 
A|-2---------9-8---------8-|-7-------------------------| 
E|-0-0-0-0-0-7-6-0-0-0-0-6-|-5-0-0-3--5--6--5--3--5----| 


Chorus 2 

e||-----------|------------|| 
B||-----------|------------|| 
G||-----------|------10----|| 
D||--7--------|-8----10----|| x2 
A||--7--------|-8----8-----|| 
E||--5--------|-6----8-----|| 


e|----------|--------------| 
B|----------|--------------| 
G|----------|--------------| 
D|-7--------|--------------| 
A|-7--------|-3--3--5------| 
E|-5--------|-1--1--3------| 


e|-------------------------|---------------| 
B|-------------------------|---------------| 
G|-------------------------|---------------| 
D|-------------------------|---------------| 
A|-------------------------|-2---9-8-------| 
E|-0-0-0-0-0-0-0-0-0-0-0-0-|-0---7-6-------| 


Bridge 

e||---------------|--------------|--------------|-------------| 
B||---------------|--------------|--------------|-------------| 
G||---------------|--------------|--------------|-------------| 
D||---------------|--------------|--------------|-------------| 
A||----/7---------|---/7---------|---/7---------|-------------| 
E||--0----5-6-3-5-|-0----5-6-3-5-|-0----5-6-3-5-|-6-5-3-5-3-1-| 


e|--------------|--------------|--------------|---------------|| 
B|--------------|--------------|--------------|---------------|| 
G|--------------|--------------|--------------|---------------|| 
D|--------------|--------------|--------------|---------------|| x2 
A|---/7---------|---/7---------|---/7---------|-8-------------|| 
E|-0----5-6-3-5-|-0----5-6-3-5-|-0----5-6-3-5-|-6---5-3-1-----|| 


Solo 

e|-0-0-0-0-0-0-0-0-0-0-0-0-0-0-0-0-|-0-0-0-0-0-0-0-0-0-0-0-0-0-0-0-0---| 
B|-5-5-5-5-5-5-5-5-5-5-5-5-5-5-5-5-|-3h5-5-5-5-5-5-5-5-5-5-5-5-5-5-5---| 
G|---------------------------------|-----------------------------------| 
D|---------------------------------|-----------------------------------| 
A|---------------------------------|-----------------------------------| 
E|---------------------------------|-----------------------------------| 


e|---------------------------------|-------------------------| 
B|-5-5p3p0-5-5p3p0-5-5p3p0-5-5p3p0-|-5-4-3-0-----------------| 
G|---------------------------------|---------2p0--3p2p0------| 
D|---------------------------------|--------------------2----| 
A|---------------------------------|-------------------------| 
E|---------------------------------|-------------------------| 


e|---------------------|------------------------| 
B|-12------------------|-12---------------------| 
G|-12------------12-14-|-12------------12-14b16-| 
D|-----14-14--14-------|-----14-14--14----------| 
A|---------------------|------------------------| 
E|---------------------|------------------------| 


e|---------------------------------------------|------------------------------------------| 
B|------12-15p12----12-15p12----12-15p12----12-|-15p12----12-15p12----12-15p12----12-15\--| 
G|-(14)----------14----------14----------14----|-------14----------14----------14---------| 
D|---------------------------------------------|------------------------------------------| 
A|---------------------------------------------|------------------------------------------| 
E|---------------------------------------------|------------------------------------------| 

                                              
e|-15b17--15b17--15b17--15b17-|-15b19---|-15p12~~--|-------| 
B|----------------------------|---------|----------|-------| 
G|----------------------------|---------|----------|-------| 
D|----------------------------|---------|----------|-------| 
A|----------------------------|---------|----------|-x\----| 
E|----------------------------|---------|----------|-x\----| pick slide 


verse 3 

e||----------------------------------|-------------------------|| 
B||----------------------------------|-------------------------|| 
G||----------------------------------|-------------------------|| 
D||----------------------------------|-------------------------|| x4 
A||----------------------------------|-------------------------|| 
E||--0-0-0-0-0-0-0-0-0-0-0-0-0-0-0-0-|-0-0-0-0-3-5-6-5-3-5-----|| 


e|--------------|--------------|--------------|----------------| 
B|--------------|--------------|--------------|----------------| 
G|--------------|--------------|--------------|----------------| 
D|--------------|--------------|--------------|----------------| 
A|---/7---------|---/7---------|---/7---------|----------------| 
E|-0----5-6-3-5-|-0----5-6-3-5-|-0----5-6-3-5-|-6-5-3-5-3-1----| 


e|--------------|--------------|--------------|----------------| 
B|--------------|--------------|--------------|----------------| 
G|--------------|--------------|--------------|----------------| 
D|--------------|--------------|--------------|----------------| 
A|---/7---------|---/7---------|---/7---------|---7-5-7-5-3----| 
E|-0----5-6-3-5-|-0----5-6-3-5-|-0----5-6-3-5-|-6-5-3-5-3-1----| 


e|----------------| 
B|----------------| 
G|----------------| 
D|----------------| 
A|-8-8-8-8-8-8----| 
E|-6-6-6-6-6-6----| 


Chorus 3 

e||-----------|------------|| 
B||-----------|------------|| 
G||-----------|------10----|| 
D||--7--------|-8----10----|| x2 
A||--7--------|-8----8-----|| 
E||--5--------|-6----8-----|| 


e|----------|--------------| 
B|----------|--------------| 
G|----------|--------------| 
D|-7--------|--------------| 
A|-7--------|-3--3--5------| 
E|-5--------|-1--1--3------| 


e|-------------------------|-----|---------------| 
B|-------------------------|-----|---------------| 
G|-------------------------|-----|---------------| 
D|-------------------------|-----|---------------| 
A|-------------------------|-2---|-8--------7----| 
E|-0-0-0-0-0-0-0-0-0-0-0-0-|-0---|-6--------5----| 


e||--------------------------|-----------------------|| 
B||--------------------------|-----------------------|| 
G||--------------------------|-----------------------||  
D||--------------------------|-----------------------|| x4 
A||--2---------9-8---------8-|-7---------------------|| 
E||--0-0-0-0-0-7-6-0-0-0-0-6-|-5-0-0-3-5-6-5-3-5-----|| 


e|------------| 
B|------------| 
G|------------| 
D|------------| 
A|-7-7-7-7----| 
E|-5-5-5-5----| 


Outro 

e||--------------------------|-----------------------|| 
B||--------------------------|-----------------------|| 
G||--------------------------|-----------------------|| 
D||--------------------------|-----------------------|| x4 
A||--2---------9-8---------8-|-7---------------------|| 
E||--0-0-0-0-0-7-6-0-0-0-0-6-|-5-0-0-3-5-6-5-3-5-----|| 


e|-------------------------|---------------| 
B|-------------------------|---------------| 
G|-------------------------|---------------| 
D|-------------------------|---------------| 
A|-------------------------|-2---9-8-------| 
E|-0-0-0-0-0-0-0-0-0-0-0-0-|-0---7-6-------| 


*********************************** 

| /   Slide up 
| \   Slide down 
| h   Hummer-on 
| p   Pull-off 
| b   Bend 
| x   Muted note 

*********************************** 
	  

Search Paypal
auto scroll beats size up size down change color hide chords drawings
tab show chords e-chords YouTube Clip e-chords hide all tabs e-chords go to top tab