Metallica

home > Metallica

Fron Tab

Metallica

Difficulty: nolevelnolevel

by lucicamargo

tuner correct add songbook print version text version save to e-mail
chordsukulelecavacokeyboardtabbassdrumsharmonicsflute Guitar Pro
chords

Fron

  		|------------| 
|------------| 
|------------| 
|-5-5--5-5-2-| (12x) 
|-5-5--5-5-2-| 
|-3-3--3-3-0-| 

|--------------------------| 
|--------------------------| 
|-7-6-5-4-----7------------| 
|---------5-4--------------|(8x) 
|---------------5-4--------| 
|--------------------------| 

|---------------------------------| 
|---------------------------------| 
|-------------------------------2-| 
|-2-5-4-1-2-5-4-1-2-5-4-1-2-4-5-2-| (4x) 
|-2-5-4-1-2-5-4-1-2-5-4-1-2-4-5-0-| 
|-0-3-2-1-0-3-2-1-0-3-2-1-0-2-3---| 

|--------------------------| 
|--------------------------| 
|--12-9-11--9-11-12-9-11---|  (32 x) 
|---------12-------------12| 
|--------------------------| 
|--------------------------| 

|---------------------------------------------------------| 
|---------------------------------------------------------| 
|-----------------------5---------------------------5-----| 
|-2-----3--5----2-----5-5-7---2-----3--5-----2----5-5-7---| 
|-2-----5--5----2-----5-3-7---2-----5--5-----2----5-3-7---| 
|-0-----3--3----0-----3---5---0-----3--3-----0----3---5---| 

|-------------------------------------------------| 
|-------------------------------------------------| 
|--------------------3----------------------3-----|	(2x) 
|-----5-----7-----5--3-4-----5-----7--------3-4-3-| 
|-----5-----7-----5--1-4-----5-----7--------1-4-3-| 
|-000-3-000-5-000-3----2-000-3-000-5-300300---2-1-| 

|---------------------------------------------------------| 
|---------------------------------------------------------| 
|------------------------5--------------------------5-----| 
|-2------3-----5-2-----5-5-7---2-----3-----5-2----5-5-7---| 
|-2------5-----5-2-----5-3-7---2-----5-----5-2----5-3-7---| 
|-0------3-----3-0-----3---5---0-----3-----3-0----3---5---| 

|-------------------------------------------------| 
|-------------------------------------------------| 
|--------------------3----------------------3-----|	(2x) 
|-----5-----7-----5--3-4-----5-----7--------3-4-3-| 
|-----5-----7-----5--1-4-----5-----7--------1-4-3-| 
|-000-3-000-5-000-3----2-000-3-000-5-300300---2-1-| 

|-------------------------------------------| 
|-------------------------------------------| 
|--12--9--11----9---------------------------| (3x) 
|-----------12-----11--12--9--11------9-----| 
|---------------------------------12-----10-| 
|-------------------------------------------| 

|-----------7------------7---| 
|-8---7-------8---10-7-8---8-| 
|---9---7-9-----9------------|(3x) 
|----------------------------| 
|----------------------------| 
|----------------------------| 

|---|   |------------| |---| 
|---|	|------------| |---| 
|---|	|------------| |---| 
|-2-|	|-5-5555-555-| |-9-| 
|-2-|	|-5-5555-555-| |-9-| 
|-0-|	|-3-3333-333-| |-7-| 

|---------------------------------------------------------| 
|---------------------------------------------------------| 
|------------------------5--------------------------5-----| 
|-2------3-----5-2-----5-5-7---2-----3-----5-2----5-5-7---| 
|-2------5-----5-2-----5-3-7---2-----5-----5-2----5-3-7---| 
|-0------3-----3-0-----3---5---0-----3-----3-0----3---5---| 

|-------------------------------------------------| 
|-------------------------------------------------| 
|--------------------3----------------------3-----|	(2x) 
|-----5-----7-----5--3-4-----5-----7--------3-4-3-| 
|-----5-----7-----5--1-4-----5-----7--------1-4-3-| 
|-000-3-000-5-000-3----2-000-3-000-5-300300---2-1-| 

|---------------------| 
|---------------------| 
|---------------------| 
|-4-4--2--4-4-5-5--2--| 
|-4-4--2--4-4-5-5--2--| 
|-2-2--0--2-2-3-3--0--| 

Make his fight on the hill in the early day 
Constant chill deep inside 
Shouting gun, on they run through the endless grey 
On the fight, for they are right, yes, by who's to say? 
For a hill men would kill, why? They do not know 
Suffered wounds test there their pride 
Men of five, still alive through the raging glow 
Gone insane from the pain that they surely know 

For whom the bell tolls 
Time marches on 
For whom the bell tolls 

Take a look to the sky just before you die 
It is the last time you will 
Blackened roar massive roar fills the crumbling sky 
Shattered goal fills his soul with a ruthless cry 
Stranger now, are his eyes, to this mystery 
He hears the silence so loud 
Crack of dawn, all is gone except the will to be 
Now the will see what will be, blinded eyes to see 
	  

Search Paypal
auto scroll beats size up size down change color hide chords drawings
tab show chords e-chords YouTube Clip e-chords hide all tabs e-chords go to top tab