Metallica

home > Metallica

Dragon Tab

Metallica

Difficulty: BeginnerBeginner

by brunblazkowski

tuner correct add songbook print version text version save to e-mail
chordsukulelecavacokeyboardtabbassdrumsharmonicsflute Guitar Pro
chords

Dragon

  		

e|--------|---------------------|---------------------|---------------------|-------------------| 
B|--------|---------------------|---------------------|---------------------|-------------------| 
G|--------|---------------------|---------------------|---------------------|-------------------| 
D|--------|-7----7----7----5----|-5----8----8---------|---------------------|-------------------| 
A|--------|-7----7----7----5----|-5----8----8---------|-----------------------------------------| 
E|--------|---------------------|---------------------|---------------------|-------------------| 


e|---------------------|---------------------|---------------------|---------------------| 
B|---------------------|---------------------|---------------------|---------------------| 
G|---------------------|---------------------|---------------------|---------------------| 
D|-7----7----7----5----|-5----8----8-----------------------------------------------------| 
A|-7----7----7----5----|-5----8----8-----------------------------------------------------| 
E|---------------------|---------------------|---------------------|---------------------| 


e|---------------------|---------------------|---------------------|---------------------| 
B|---------------------|---------------------|---------------------|---------------------| 
G|---------------------|---------------------|---------------------|---------------------| 
D|-7----7----7----5----|-5----8----8-------------------------------|-5---------4----4----| 
A|-7----7----7----5----|-5----8----8-------------------------------|-5---------4----4----| 
E|---------------------|---------------------|---------------------|---------------------| 


e|---------------------|---------------------|---------------------|---------------------| 
B|---------------------|---------------------|---------------------|---------------------| 
G|---------------------|---------------------|---------------------|---------------------| 
D|-4----4----4----4----|-4----4----4----4----|-4----4----4----5----|-4----5----4----5----| 
A|-4----4----4----4----|-4----4----4----4----|-4----4----4----5----|-4----5----4----5----| 
E|---------------------|---------------------|---------------------|---------------------| 


e|---------------------|---------------------|---------------------| 
B|---------------------|---------------------|---------------------| 
G|---------------------|---------------------|---------------------| 
D|-5----5----5----5----|-5----5----5----5----|---------------------| 
A|-5----5----5----5----|-5----5----5----5----|---------------------| 
E|---------------------|---------------------|---------------------| 
	  

Search Paypal
auto scroll beats size up size down change color hide chords drawings
tab show chords e-chords YouTube Clip e-chords hide all tabs e-chords go to top tab