Metallica

home > Metallica

Dirty Window Tab

Metallica

Difficulty: AdvancedAdvanced

by Willian89

tuner correct add songbook print version text version save to e-mail
chordsukulelecavacokeyboardtabbassdrumsharmonicsflute Guitar Pro
chords

Dirty Window

Year: 2003 - Album: St. Anger

  		GUITAR 1 E GUITAR 2 
 
 
 
E----------------------------------------------------------------------------------------- 
B----------------------------------------------------------------------------------------- 
G----------------------------------------------------------------------------------------- 
D---22222----22---2----2222---22--2---2222--22-2----2222--22-2----2222--22-2---2222--22-2- 
A---22222----22---2----2222---22--2---2222--22-2----2222--22-2----2222--22-2---2222--22-2- 
C---00000----00---0----0000---00--0---0000--00-0----0000--00-0----0000--00-0---0000--00-0- 
 
 
E---------------------------------------------------------------------------------------- 
B---------------------------------------------------------------------------------------- 
G---------------------------------------------------------------------------------------- 
D---------------------------------------------------------------------------------------- 
A------------------------------4-----------------------------------4--------------------- 
C--0--3--5--0--3--5--0--3--5-----6--5---0--3--5--0--3--5--0--3--5-----6--5--------------- 
 
E---------------------------------------------------------------------------------------- 
B---------------------------------------------------------------------------------------- 
G---------------------------------------------------------------------------------------- 
D---------------------------------------------------------------------------------------- 
A------------------------------4-----------------------------------4--------------------- 
C--0--3--5--0--3--5--0--3--5-----6--5---0--3--5--0--3--5--0--3--5-----6--5--------------- 
 
 
 
E---------------------------------------------------------------------------------------- 
B---------------------------------------------------------------------------------------- 
G---------------------------------------------------------------------------------------- 
D---------------------------------------------------------------------------------------- 
A----------------------------4----------------------------------------------------------- 
C--0--3--5--0--3--5--0--3--5---6--5----3~~--~3/5~~--5--5-5------------------------------- 
 
E---------------------------------------------------------------------------------------- 
B---------------------------------------------------------------------------------------- 
G---------------------------------------------------------------------------------------- 
D---------------------------------------------------------------------------------------- 
A----------------------------4----------------------------------------------------------- 
C--0--3--5--0--3--5--0--3--5---6--5------------------------------------------------------ 
 
 
I SEE MY REFLECTION IN THE WINDOW.... 
 
E---------------------------------------------------------------------------------------- 
B---------------------------------------------------------------------------------------- 
G---------------------------------------------------------------------------------------- 
D---------------------------------------------------------------------------------------- 
A------------------------------4-----------------------------------4--------------------- 
C--0--3--5--0--3--5--0--3--5-----6--5---0--3--5--0--3--5--0--3--5-----6--5--------------- 
 
 
E---------------------------------------------------------------------------------------- 
B---------------------------------------------------------------------------------------- 
G---------------------------------------------------------------------------------------- 
D---------------------------------------------------------------------------------------- 
A----------------------------4----------------------------------------------------------- 
C--0--3--5--0--3--5--0--3--5---6--5----3~~--~3/5~~--5--5-5------------------------------- 
 
 
PALM MUTE 
 
E---------------------------------------------------------------------------------------- 
B---------------------------------------------------------------------------------------- 
G---------------------------------------------------------------------------------------- 
D---------------------------------------------------------------------------------------- 
A------------------------------4-----------------------------------4--------------------- 
C--0--3--5--0--3--5--0--3--5-----6--5---0--3--5--0--3--5--0--3--5-----6--5--------------- 
 
 
 
E---------------------------------------------------------------------------------------- 
B---------------------------------------------------------------------------------------- 
G---------------------------------------------------------------------------------------- 
D---------------------------------------------------------------------------------------- 
A---------------------------------------------------------------------------------------- 
C---0--3--5~~-0----0--3--5--6~~----0-3-5--0-----0--3--5--6~~----------------------------- 
 
E---------------------------------------------------------------------------------------- 
B---------------------------------------------------------------------------------------- 
G---------------------------------------------------------------------------------------- 
D---------------------------------------------------------------------------------------- 
A---------------------------------------------------------------------------------------- 
C---0--3--5~~-0----0--3--5--6~~----0-3-5--0-----0--3--5--6~~----------------------------- 
 
PALM MUTE 
 
E---------------------------------------------------------------------------------------- 
B---------------------------------------------------------------------------------------- 
G---------------------------------------------------------------------------------------- 
D---------------------------------------------------------------------------------------- 
A---------------------------------------------------------------------------------------- 
C---0--3--5--0---0--3--5-0--------------------------------------------------------------- 
 
 
E---------------------------------------------------------------------------------------- 
B---------------------------------------------------------------------------------------- 
G---------------------------------------------------------------------------------------- 
D---------------------------------------------------------------------------------------- 
A------------------------------4-----------------------------------4--------------------- 
C--0--3--5--0--3--5--0--3--5-----6--5---0--3--5--0--3--5--0--3--5-----6--5--------------- 
 
 
IM JUDGING IM JURING IN MY EXECUTION.... 
 
E---------------------------------------------------------------------------------------- 
B---------------------------------------------------------------------------------------- 
G---------------------------------------------------------------------------------------- 
D----6~~-----6--4---6h7~~--6-------6~~-----6--4---6h7~~--6------------------------------- 
A---------7----------------------------7------------------------------------------------- 
C---------------------------------------------------------------------------------------- 
 
PROTECTOR, REFLECTOR 
 
E---------------------------------------------------------------------------------------- 
B---------------------------------------------------------------------------------------- 
G---------------------------------------------------------------------------------------- 
D---------------------------------------------------------------------------------------- 
A--------------------------------4------------------------------------------4------------ 
C--0--3-5--0---0-3-5-0---0--3-5----6--5---0--3-5-0--0-3-5-0--0-3-5-0--0-3-5-----6--5----- 
 
E---------------------------------------------------------------------------------------- 
B---------------------------------------------------------------------------------------- 
G---------------------------------------------------------------------------------------- 
D-------------------2222-22--2---2222--22--2--------------------------------------------- 
A--------4----------2222-22--2---2222--22--2--------------------------------------------- 
C-0-3-5----6--5-----0000-00--0---0000--00--0--------------------------------------------- 
 
 
I SEE MY REFLECTION IN THE WINDOW.... 
 
E---------------------------------------------------------------------------------------- 
B---------------------------------------------------------------------------------------- 
G---------------------------------------------------------------------------------------- 
D---------------------------------------------------------------------------------------- 
A------------------------------4-----------------------------------4--------------------- 
C--0--3--5--0--3--5--0--3--5-----6--5---0--3--5--0--3--5--0--3--5-----6--5--------------- 
 
 
E---------------------------------------------------------------------------------------- 
B---------------------------------------------------------------------------------------- 
G---------------------------------------------------------------------------------------- 
D---------------------------------------------------------------------------------------- 
A----------------------------4----------------------------------------------------------- 
C--0--3--5--0--3--5--0--3--5---6--5----3~~--~3/5~~--5--5-5------------------------------- 
 
 
PALM MUTE 
 
E---------------------------------------------------------------------------------------- 
B---------------------------------------------------------------------------------------- 
G---------------------------------------------------------------------------------------- 
D---------------------------------------------------------------------------------------- 
A------------------------------4-----------------------------------4--------------------- 
C--0--3--5--0--3--5--0--3--5-----6--5---0--3--5--0--3--5--0--3--5-----6--5--------------- 
 
 
 
E---------------------------------------------------------------------------------------- 
B---------------------------------------------------------------------------------------- 
G---------------------------------------------------------------------------------------- 
D---------------------------------------------------------------------------------------- 
A---------------------------------------------------------------------------------------- 
C---0--3--5~~-0----0--3--5--6~~----0-3-5--0-----0--3--5--6~~----------------------------- 
 
E---------------------------------------------------------------------------------------- 
B---------------------------------------------------------------------------------------- 
G---------------------------------------------------------------------------------------- 
D---------------------------------------------------------------------------------------- 
A---------------------------------------------------------------------------------------- 
C---0--3--5~~-0----0--3--5--6~~----0-3-5--0-----0--3--5--6~~----------------------------- 
 
PALM MUTE 
 
E---------------------------------------------------------------------------------------- 
B---------------------------------------------------------------------------------------- 
G---------------------------------------------------------------------------------------- 
D---------------------------------------------------------------------------------------- 
A---------------------------------------------------------------------------------------- 
C---0--3--5--0---0--3--5-0--------------------------------------------------------------- 
 
 
E---------------------------------------------------------------------------------------- 
B---------------------------------------------------------------------------------------- 
G---------------------------------------------------------------------------------------- 
D---------------------------------------------------------------------------------------- 
A------------------------------4-----------------------------------4--------------------- 
C--0--3--5--0--3--5--0--3--5-----6--5---0--3--5--0--3--5--0--3--5-----6--5--------------- 
 
 
IM JUDGING IM JURING IN MY EXECUTION.... 
 
E---------------------------------------------------------------------------------------- 
B---------------------------------------------------------------------------------------- 
G---------------------------------------------------------------------------------------- 
D----6~~-----6--4---6h7~~--6-------6~~-----6--4---6h7~~--6------------------------------- 
A---------7----------------------------7------------------------------------------------- 
C---------------------------------------------------------------------------------------- 
 
PROTECTOR, REFLECTOR 
 
E---------------------------------------------------------------------------------------- 
B---------------------------------------------------------------------------------------- 
G---------------------------------------------------------------------------------------- 
D---------------------------------------------------------------------------------------- 
A--------------------------------4------------------------------------------4------------ 
C--0--3-5--0---0-3-5-0---0--3-5----6--5---0--3-5-0--0-3-5-0--0-3-5-0--0-3-5-----6--5----- 
 
E---------------------------------------------------------------------------------------- 
B---------------------------------------------------------------------------------------- 
G---------------------------------------------------------------------------------------- 
D-------------------2222-22--2---2222--22--2--------------------------------------------- 
A--------4----------2222-22--2---2222--22--2--------------------------------------------- 
C-0-3-5----6--5-----0000-00--0---0000--00--0--------------------------------------------- 
 
INTERLUDE(PALM MUTE) 
 
E------------------------------------- 
B------------------------------------- 
G------------------------------------- 
D---22222----22---2----2222---22--2--- 
A---22222----22---2----2222---22--2--- 
C---00000----00---0----0000---00--0--- 
 
E----------------------------------------------------------------------------------------- 
B----------------------------------------------------------------------------------------- 
G----------------------------------------------------------------------------------------- 
D---22222----22---2----2222---22--2---2222--22-2----2222--22-2----2222--22-2---2222--22-2- 
A---22222----22---2----2222---22--2---2222--22-2----2222--22-2----2222--22-2---2222--22-2- 
C---00000----00---0----0000---00--0---0000--00-0----0000--00-0----0000--00-0---0000--00-0- 
 
E----------------------------------------------------------------------------------------- 
B----------------------------------------------------------------------------------------- 
G----------------------------------------------------------------------------------------- 
D---22222----22---2----2222---22--2---2222--22-2----2222--22-2----2222--22-2---2222--22-2- 
A---22222----22---2----2222---22--2---2222--22-2----2222--22-2----2222--22-2---2222--22-2- 
C---00000----00---0----0000---00--0---0000--00-0----0000--00-0----0000--00-0---0000--00-0- 
 
 
AHAHAAHAHAHAH YAH 
 
E---------------------------------------------------------------------------------------- 
B---------------------------------------------------------------------------------------- 
G---------------------------------------------------------------------------------------- 
D---------------------------------------------------------------------------------------- 
A------------------------------4-----------------------------------4--------------------- 
C--0--3--5--0--3--5--0--3--5-----6--5---0--3--5--0--3--5--0--3--5-----6--5--------------- 
 
 
IM JUDGING IM JURING IN MY EXECUTION.... 
 
E---------------------------------------------------------------------------------------- 
B---------------------------------------------------------------------------------------- 
G---------------------------------------------------------------------------------------- 
D----6~~-----6--4---6h7~~--6-------6~~-----6--4---6h7~~--6------------------------------- 
A---------7----------------------------7------------------------------------------------- 
C---------------------------------------------------------------------------------------- 
 
PROTECTOR, REFLECTOR 
 
E---------------------------------------------------------------------------------------- 
B---------------------------------------------------------------------------------------- 
G---------------------------------------------------------------------------------------- 
D---------------------------------------------------------------------------------------- 
A--------------------------------4------------------------------------------4------------ 
C--0--3-5--0---0-3-5-0---0--3-5----6--5---0--3-5-0--0-3-5-0--0-3-5-0--0-3-5-----6--5----- 
 
E---------------------------------------------------------------------------------------- 
B---------------------------------------------------------------------------------------- 
G---------------------------------------------------------------------------------------- 
D-------------------2222-22--2---2222--22--2--------------------------------------------- 
A--------4----------2222-22--2---2222--22--2--------------------------------------------- 
C-0-3-5----6--5-----0000-00--0---0000--00--0--------------------------------------------- 
 
FINAL 
 
E------------------------------------- 
B------------------------------------- 
G------------------------------------- 
D---22222----22---2----2222---22--2--- 
A---22222----22---2----2222---22--2--- 
C---00000----00---0----0000---00--0--- 
 
E----------------------------------------------------------------------------------------- 
B----------------------------------------------------------------------------------------- 
G----------------------------------------------------------------------------------------- 
D---22222----22---2----2222---22--2---2222--22-2----2222--22-2----2222--22-2---2222--22-2- 
A---22222----22---2----2222---22--2---2222--22-2----2222--22-2----2222--22-2---2222--22-2- 
C---00000----00---0----0000---00--0---0000--00-0----0000--00-0----0000--00-0---0000--00-0- 
 
E----------------------------------------------------------------------------------------- 
B----------------------------------------------------------------------------------------- 
G----------------------------------------------------------------------------------------- 
D---22222----22---2----2222---22--2---2222--22-2----2222--22-2----2222--22-2---2222--22-2- 
A---22222----22---2----2222---22--2---2222--22-2----2222--22-2----2222--22-2---2222--22-2- 
C---00000----00---0----0000---00--0---0000--00-0----0000--00-0----0000--00-0---0000--00-0- 
 
E----------------------------------------------------------------------------------------- 
B----------------------------------------------------------------------------------------- 
G----------------------------------------------------------------------------------------- 
D---22222----22---2----2222---22--2---2222--22-2----2222--22-2----2222--22-2---2222--22-2- 
A---22222----22---2----2222---22--2---2222--22-2----2222--22-2----2222--22-2---2222--22-2- 
C---00000----00---0----0000---00--0---0000--00-0----0000--00-0----0000--00-0---0000--00-0- 
	  

Search Paypal
auto scroll beats size up size down change color hide chords drawings
tab show chords e-chords YouTube Clip e-chords hide all tabs e-chords go to top tab