Metallica

home > Metallica

Bleeding Me Tab

Metallica

Difficulty: ExpertExpert

tuner correct add songbook print version text version save to e-mail
chordsukulelecavacokeyboardtabbassdrumsharmonicsflute Guitar Pro
chords

Bleeding Me

Year: 1996 - Album: S&M

  		 
Notações: 
 
/ or  = slide 
     p = pull off 
     h = hammer 
     X = mute strings 
 
 
Intro  
     
      1   2   3   4   1   2   3   4    1   2   3   4   1   2   3   4      
  Eb|--------------------------------|--------------------------------| 
  {Bb|--------------------------------|--------------------------------|} 
  {Gb|o-------------------------------|--------------------------------|} 
  {Db|o--------5-------------------5--|---------5----------------------|} 
  Ab|-----5/7---5-7-------7-----5--7-|-----5/7---5-7-------7-----5----| 
  Eb|-0---------------0-----5-3------|-0---------------0-----53---3^-| 
  
      1   2   3   4   1   2   3   4    1   2   3   4   1   2   3   4      
  Eb|--------------------------------|--------------------------------| 
  {Bb|--------------------------------|--------------------------------|} 
  {Gb|--------------------------------|-------------------------------o|} 
  {Db|---------5-------------------5--|---------5---------------------o|} 
  Ab|-----5/7---5-7-------7-----5--7-|-----5/7---5-7-------5-----5----| 
  Eb|-0---------------0-----5-3------|-0---------------3-----32---3^-| 
 
   
Intro Fill 
 
      1   2   3   4   1   2   3   4    1   2   3   4   1   2   3   4      
  Eb|--------------------------------|--------------------------------| 
  {Bb|-8-------8-------8-------8---6--|-8-------8-------8-------8---6--|} 
  {Gb|o-------------------------------|-------------------------------o|} 
  {Db|o-------------------------------|-------------------------------o|} 
  Ab|--------------------------------|--------------------------------| 
  Eb|--------------------------------|--------------------------------| 
 
 
Pre Chorus (the "Wo-ah  oh oh oh..." part) 
 
{This isn't exactly what I play but its close and easier to tab} 
{I haven't figured out the lead over this yet} 
 
       1   2   3   4   1   2   3   4   1   2   3   4   1   2   3   4      
  Eb|-----------------------------------------------------------------| 
  {Bb|-----------------------------------------------------------------|} 
  {Gb|o---------------------------------------------------------------o|} 
  {Db|o-7-h-9-X-9-------5-h-7-X-7-------5-h-7-X-7---------------------o|} 
  Ab|--7-----X-7---X---5-----X-5---X---5-----X-5---X---5-h-7-X-7------| 
  Eb|--------------------------------------------------5-------5-X-3^-| 
 
 
Chorus (the "Caught under wheels roll..." part) 
 
{This isn't exactly what I play but its close and easier to tab} 
 
       1   2   3   4   1   2   3   4   1   2   3   4   1   2   3   4      
  Eb|-----------------------------------------------------------------| 
  {Bb|-----------------------------------------------------------------|} 
  {Gb|o---------------------------------------------------------------o|} 
  {Db|o-9---9---9---X---5h7-7---7---X---5h7-7---7---X-----------------o|} 
  Ab|--7---7---7---X---5---5---5---X---5---5---5---X---7---7---7------| 
  Eb|--------------------------------------------------5---5---5-0-3^-| 
 
{Short pause at about 4'48" then its starts up with} 
{The "I am the beast that is the feast..." part}  
 
       1   2   3   4   1   2   3   4      
  Eb|-----------------------------------| 
  {Bb|-----------------------------------|} 
  {Gb|o-----------------------------5---o|} 
  {Db|o-7h9-----9-----7-----9-----5---5-o|} 
  Ab|--7---X-X-7-X-X-7-X-X-7-X-5--------| 
  Eb|-----------------------------------| 
 
 
 
_______________________________________________________ 
Contribuição: Bruno N. Carvalho([email protected]) 
	  

Search Paypal
auto scroll beats size up size down change color hide chords drawings
tab show chords e-chords YouTube Clip e-chords hide all tabs e-chords go to top tab