Message To Bears

The Tourist

Message To Bears

tabs

by  JESSGOMES

save to print version add songbook text version e-mail correct tuner
chordsukulelecavacokeyboardtabbassdrumsharmonicaflute Guitar Pro
close

there isn't a video lesson for this song

chords

The Tourist

	  		
 



e|---------------------------------------------------------------------------| 
B|---------------------------------------------------------------------------| 
G|--------------5---------------5---------------5---------------5------------| 
D|------5---------------5---------------5---------------5--------------------| 
A|----------2---------------2---------------2---------------2----------------| 
E|--0---------------0---------------0---------------0------------------------| 

e|---------------------------------------------------------------------------| 
B|---------------------------------------------------------------------------| 
G|--------------5---------------5---------------5---------------5------------| 
D|------5---------------5---------------5---------------5--------------------| 
A|----------2---------------2---------------2---------------2----------------| 
E|--2---------------2---------------5---------------5------------------------| 

That's all folks - simple, yet killer progression. 


************************************ 

| /   slide up 
| \   slide down 
| h   hammer-on 
| p   pull-off 
| ~   vibrato 
| +   harmonic 
| x   Mute note 
| b   Bend 
| pb  Pre-bend 
| br  Bend release 
| pbr Pre-bend release 
| brb Bend release bend 

************************************ 
		  

See also:

tabs Deep Purple - Deep Purple - Smoke On The Water tabs Ira! - Vitrine Viva tabs Ira! - Eu Quero Sempre Mais (Com Pitty, intro) tabs Deep Purple - Smoke On The Water (Easy Intro) tabs Deep Purple - Money Talks tabs Deep Purple - Mistreated
e-chords

Other versions:

tabs Radiohead - The Tourist tabs Message To Bears - The Tourist
auto scroll beats size up size down change color hide chords drawings
tab show chords e-chords YouTube Clip e-chords hide all tabs e-chords go to top tab

share