save to print version add songbook text version e-mail correct tuner
chordsukulelecavacokeyboardtabbassdrumsharmonicaflute Guitar Pro
close

there isn't a video lesson for this song

chords

Autumn

	  		

 

 


Repeated line throughout the song: 

e|----------------0---------------0---------------0---------------0----------| 
B|------------5-------5-------5---------------5-------5-------5--------------| 
G|--------0---------------0---------------0---------------0------------------| 
D|---------------------------------------------------------------------------| 
A|----3-------------------------------3--------------------------------------| 
E|---------------------------------------------------------------------------| 

e|------------3-------2-----------------------3-------2----------------------| 
B|----------------0-----------3-------0-----------------------3--------------| 
G|--------0---------------0-------0-------0-------0-------0-------0----------| 
D|---------------------------------------------------------------------------| 
A|----2----------------------------------------------------------------------| 
E|---------------------------------------------------------------------------| 



Fades in at ~ 2:05 and loops over and over 

e|-------10-----10-----10-----10-----10-----10-----10-----10-----10-----10---| 
B|----8------8------8------8------8------8------8------8------8------8-------| 
G|---(0)----(0)----(0)----(0)----(0)----(0)----(0)----(0)----(0)----(0)------| 
D|---------------------------------------------------------------------------| 
A|---------------------------------------------------------------------------| 
E|---------------------------------------------------------------------------| 

e|-------10-----10-----10-----10-----10-----10-----7------7------7------7----| 
B|----8------8------8------8------8------8------8------8------8------8-------| 
G|---(0)----(0)----(0)----(0)----(0)----(0)----(0)----(0)----(0)----(0)------| 
D|---------------------------------------------------------------------------| 
A|---------------------------------------------------------------------------| 
E|---------------------------------------------------------------------------| 

e|-------7------7------7------7------7------7------7------7------7------7----| 
B|----8------8------8------8------8------8------8------8------8------8-------| 
G|---(0)----(0)----(0)----(0)----(0)----(0)----(0)----(0)----(0)----(0)------| 
D|---------------------------------------------------------------------------| 
A|---------------------------------------------------------------------------| 
E|---------------------------------------------------------------------------| 

e|-------7------7------| 
B|----8------8---------| 
G|---(0)----(0)--------| 
D|---------------------| 
A|---------------------| 
E|---------------------| 


************************************ 

| /   slide up 
| \   slide down 
| h   hammer-on 
| p   pull-off 
| ~   vibrato 
| +   harmonic 
| x   Mute note 
| b   Bend 
| pb  Pre-bend 
| br  Bend release 
| pbr Pre-bend release 
| brb Bend release bend 

************************************ 
		  

See also:

tabs Ira! - Poço de Sensibilidade (Solo - Acustico Mtv) tabs Deep Purple - Smoke On The Water tabs Deep Purple - Smoke on the water (intro) tabs Ira! - Eu Quero Sempre Mais (Com Pitty, intro) tabs Deep Purple - Smoke on the Water (ver. 2) tabs Deep Purple - Knocking At Your Back Door
e-chords

Other versions:

tabs Message To Bears - Autumn tabs Clare Bowditch - Autumn Bone tabs Dandy Warhols - Autumn Carnival tabs Blowback - Autumn Leaf tabs Nat King Cole - Autumn Leaves tabs Joe Pass - Autumn Leaves
auto scroll beats size up size down change color hide chords drawings
tab show chords e-chords YouTube Clip e-chords hide all tabs e-chords go to top tab

share