Meshuggah

Concatenation

Meshuggah

tabs

by  BOMBAXXX

save to print version add songbook text version e-mail correct tuner
chordsukulelecavacokeyboardtabbassdrumsharmonicaflute Guitar Pro
close

there isn't a video lesson for this song

chords

Concatenation

	  		
Guitar 7 string
Tuning Drop A#


           PM            PM         PM            PM         PM            PM   
      S  S S  S  S E  E  S     S  S S  S  S E  E  S     S  S S  S  S E  E  S    
D#||------------------------|------------------------|------------------------| 
A#||------------------------|------------------------|------------------------| 
F#||------------------------|------------------------|------------------------| 
C#||------------------------|------------------------|------------------------| 
G#||------------------------|------------------------|------------------------| 
D#||------------------------|------------------------|------------------------| 
A#||--0h-6-0--0h-6-0--0--0--|--0h-6-0--0h-6-0--0--0--|--0h-6-0--0h-6-0--0--0--| 


       PM            PM         PM            PM         PM            PM   
  S  S S  S  S E  E  S     S  S S  S  S E  E  S     S  S S  S  S E  E  S    
------------------------|------------------------|------------------------| 
------------------------|------------------------|------------------------| 
------------------------|------------------------|------------------------| 
------------------------|------------------------|------------------------| 
------------------------|------------------------|------------------------| 
------------------------|------------------------|------------------------| 
--0h-6-0--0h-6-0--0--0--|--0h-6-0--0h-6-0--0--0--|--0h-6-0--0h-6-0--0--0--| 


       PM PM         PM            PM         PM            PM   
  S  S S  S     S  S S  S  S E  E  S     S  S S  S  S E  E  S    
-------------|------------------------|------------------------| 
-------------|------------------------|------------------------| 
-------------|------------------------|------------------------| 
-------------|------------------------|------------------------| 
-------------|------------------------|------------------------| 
-------------|------------------------|------------------------| 
--0h-6-0--0--|--0h-6-0--0h-6-0--0--0--|--0h-6-0--0h-6-0--0--0--| 


       PM            PM         PM            PM         PM            PM   
  S  S S  S  S E  E  S     S  S S  S  S E  E  S     S  S S  S  S E  E  S    
------------------------|------------------------|------------------------| 
------------------------|------------------------|------------------------| 
------------------------|------------------------|------------------------| 
------------------------|------------------------|------------------------| 
------------------------|------------------------|------------------------| 
------------------------|------------------------|------------------------| 
--0h-6-0--0h-6-0--0--0--|--0h-6-0--0h-6-0--0--0--|--0h-6-0--0h-6-0--0--0--| 


       PM            PM         PM PM         PM            PM   
  S  S S  S  S E  E  S     S  S S  S     S  S S  S  S E  E  S    
------------------------|-------------|------------------------| 
------------------------|-------------|------------------------| 
------------------------|-------------|------------------------| 
------------------------|-------------|------------------------| 
------------------------|-------------|------------------------| 
------------------------|-------------|------------------------| 
--0h-6-0--0h-6-0--0--0--|--0h-6-0--0--|--0h-6-0--0h-6-0--0--0--| 


       PM            PM         PM            PM         PM            PM   
  S  S S  S  S E  E  S     S  S S  S  S E  E  S     S  S S  S  S E  E  S    
------------------------|------------------------|------------------------| 
------------------------|------------------------|------------------------| 
------------------------|------------------------|------------------------| 
------------------------|------------------------|------------------------| 
------------------------|------------------------|------------------------| 
------------------------|------------------------|------------------------| 
--0h-6-0--0h-6-0--0--0--|--0h-6-0--0h-6-0--0--0--|--0h-6-0--0h-6-0--0--0--| 


       PM            PM         PM            PM         PM PM   
  S  S S  S  S E  E  S     S  S S  S  S E  E  S     S  S S  S    
------------------------|------------------------|-------------| 
------------------------|------------------------|-------------| 
------------------------|------------------------|-------------| 
------------------------|------------------------|-------------| 
------------------------|------------------------|-------------| 
------------------------|------------------------|-------------| 
--0h-6-0--0h-6-0--0--0--|--0h-6-0--0h-6-0--0--0--|--0h-6-0--0--| 


       PM            PM         PM            PM         PM            PM   
  S  S S  S  S E  E  S     S  S S  S  S E  E  S     S  S S  S  S E  E  S    
------------------------|------------------------|------------------------| 
------------------------|------------------------|------------------------| 
------------------------|------------------------|------------------------| 
------------------------|------------------------|------------------------| 
------------------------|------------------------|------------------------| 
------------------------|------------------------|------------------------| 
--0h-6-0--0h-6-0--0--0--|--0h-6-0--0h-6-0--0--0--|--0h-6-0--0h-6-0--0--0--| 


       PM            PM         PM            PM         PM            PM   
  S  S S  S  S E  E  S     S  S S  S  S E  E  S     S  S S  S  S E  E  S    
------------------------|------------------------|------------------------| 
------------------------|------------------------|------------------------| 
------------------------|------------------------|------------------------| 
------------------------|------------------------|------------------------| 
------------------------|------------------------|------------------------| 
------------------------|------------------------|------------------------| 
--0h-6-0--0h-6-0--0--0--|--0h-6-0--0h-6-0--0--0--|--0h-6-0--0h-6-0--0--0--| 


       PM PM         PM      PM PM PM         PM      PM PM PM   
  S  S S  S     S  S S  S  S E  E  S     S  S S  S  S E  E  S    
-------------|------------------------|------------------------| 
-------------|------------------------|------------------------| 
-------------|------------------------|------------------------| 
-------------|------------------------|------------------------| 
-------------|------------------------|------------------------| 
-------------|------------------------|------------------------| 
--0h-6-0--0--|--0h-1-0--0h-1-0--0--0--|--0h-1-0--0h-1-0--0--0--| 


       PM      PM PM PM         PM      PM PM PM         PM      PM PM PM   
  S  S S  S  S E  E  S     S  S S  S  S E  E  S     S  S S  S  S E  E  S    
------------------------|------------------------|------------------------| 
------------------------|------------------------|------------------------| 
------------------------|------------------------|------------------------| 
------------------------|------------------------|------------------------| 
------------------------|------------------------|------------------------| 
------------------------|------------------------|------------------------| 
--0h-1-0--0h-1-0--0--0--|--0h-1-0--0h-1-0--0--0--|--0h-1-0--0h-1-0--0--0--| 


       PM      PM PM PM         PM PM         PM      PM PM PM   
  S  S S  S  S E  E  S     S  S S  S     S  S S  S  S E  E  S    
------------------------|-------------|------------------------| 
------------------------|-------------|------------------------| 
------------------------|-------------|------------------------| 
------------------------|-------------|------------------------| 
------------------------|-------------|------------------------| 
------------------------|-------------|------------------------| 
--0h-1-0--0h-1-0--0--0--|--0h-1-0--0--|--0h-1-0--0h-1-0--0--0--| 


       PM      PM PM PM         PM      PM PM PM         PM      PM PM PM   
  S  S S  S  S E  E  S     S  S S  S  S E  E  S     S  S S  S  S E  E  S    
------------------------|------------------------|------------------------| 
------------------------|------------------------|------------------------| 
------------------------|------------------------|------------------------| 
------------------------|------------------------|------------------------| 
------------------------|------------------------|------------------------| 
------------------------|------------------------|------------------------| 
--0h-1-0--0h-1-0--0--0--|--0h-1-0--0h-1-0--0--0--|--0h-1-0--0h-1-0--0--0--| 


       PM      PM PM PM         PM      PM PM PM         PM PM   
  S  S S  S  S E  E  S     S  S S  S  S E  E  S     S  S S  S    
------------------------|------------------------|-------------| 
------------------------|------------------------|-------------| 
------------------------|------------------------|-------------| 
------------------------|------------------------|-------------| 
------------------------|------------------------|-------------| 
------------------------|------------------------|-------------| 
--0h-1-0--0h-1-0--0--0--|--0h-1-0--0h-1-0--0--0--|--0h-1-0--0--| 


       PM      PM PM PM         PM      PM PM PM         PM      PM PM PM   
  S  S S  S  S E  E  S     S  S S  S  S E  E  S     S  S S  S  S E  E  S    
------------------------|------------------------|------------------------| 
------------------------|------------------------|------------------------| 
------------------------|------------------------|------------------------| 
------------------------|------------------------|------------------------| 
------------------------|------------------------|------------------------| 
------------------------|------------------------|------------------------| 
--0h-1-0--0h-1-0--0--0--|--0h-1-0--0h-1-0--0--0--|--0h-1-0--0h-1-0--0--0--| 


       PM      PM PM PM         PM      PM PM PM         PM      PM PM PM   
  S  S S  S  S E  E  S     S  S S  S  S E  E  S     S  S S  S  S E  E  S    
------------------------|------------------------|------------------------| 
------------------------|------------------------|------------------------| 
------------------------|------------------------|------------------------| 
------------------------|------------------------|------------------------| 
------------------------|------------------------|------------------------| 
------------------------|------------------------|------------------------| 
--0h-1-0--0h-1-0--0--0--|--0h-1-0--0h-1-0--0--0--|--0h-1-0--0h-1-0--0--0--| 


       PM PM         PM      PM PM PM         PM      PM PM PM   
  S  S S  S     S  S S  S  S E  E  S     S  S S  S  S E  E  S    
-------------|------------------------|------------------------| 
-------------|------------------------|------------------------| 
-------------|------------------------|------------------------| 
-------------|------------------------|------------------------| 
-------------|------------------------|------------------------| 
-------------|------------------------|------------------------| 
--0h-1-0--0--|--0h-1-0--0h-1-0--0--0--|--0h-1-0--0h-1-0--0--0--| 


       PM      PM PM PM         PM      PM PM PM         PM      PM PM PM   
  S  S S  S  S E  E  S     S  S S  S  S E  E  S     S  S S  S  S E  E  S    
------------------------|------------------------|------------------------| 
------------------------|------------------------|------------------------| 
------------------------|------------------------|------------------------| 
------------------------|------------------------|------------------------| 
------------------------|------------------------|------------------------| 
------------------------|------------------------|------------------------| 
--0h-1-0--0h-1-0--0--0--|--0h-1-0--0h-1-0--0--0--|--0h-1-0--0h-1-0--0--0--| 


       PM      PM PM PM         PM PM         PM      PM PM PM   
  S  S S  S  S E  E  S     S  S S  S     S  S S  S  S E  E  S    
------------------------|-------------|------------------------| 
------------------------|-------------|------------------------| 
------------------------|-------------|------------------------| 
------------------------|-------------|------------------------| 
------------------------|-------------|------------------------| 
------------------------|-------------|------------------------| 
--0h-1-0--0h-1-0--0--0--|--0h-1-0--0--|--0h-6-0--0h-6-0--0--0--| 


       PM            PM         PM      PM PM PM         PM            PM   
  S  S S  S  S E  E  S     S  S S  S  S E  E  S     S  S S  S  S E  E  S    
------------------------|------------------------|------------------------| 
------------------------|------------------------|------------------------| 
------------------------|------------------------|------------------------| 
------------------------|------------------------|------------------------| 
------------------------|------------------------|------------------------| 
------------------------|------------------------|------------------------| 
--0h-6-0--0h-6-3--3--0--|--0h-6-0--0h-6-0--0--0--|--0h-6-0--0h-6-3--3--0--| 


       PM      PM PM PM         PM            PM         PM PM   
  S  S S  S  S E  E  S     S  S S  S  S E  E  S     S  S S  S    
------------------------|------------------------|-------------| 
------------------------|------------------------|-------------| 
------------------------|------------------------|-------------| 
------------------------|------------------------|-------------| 
------------------------|------------------------|-------------| 
------------------------|------------------------|-------------| 
--0h-6-0--0h-6-0--0--0--|--0h-6-0--0h-6-3--3--0--|--0h-6-0--0--| 


       PM      PM PM PM         PM            PM         PM      PM PM PM   
  S  S S  S  S E  E  S     S  S S  S  S E  E  S     S  S S  S  S E  E  S    
------------------------|------------------------|------------------------| 
------------------------|------------------------|------------------------| 
------------------------|------------------------|------------------------| 
------------------------|------------------------|------------------------| 
------------------------|------------------------|------------------------| 
------------------------|------------------------|------------------------| 
--0h-6-0--0h-6-0--0--0--|--0h-6-0--0h-6-3--3--0--|--0h-6-0--0h-6-0--0--0--| 


       PM            PM         PM      PM PM PM         PM            PM   
  S  S S  S  S E  E  S     S  S S  S  S E  E  S     S  S S  S  S E  E  S    
------------------------|------------------------|------------------------| 
------------------------|------------------------|------------------------| 
------------------------|------------------------|------------------------| 
------------------------|------------------------|------------------------| 
------------------------|------------------------|------------------------| 
------------------------|------------------------|------------------------| 
--0h-6-0--0h-6-3--3--0--|--0h-6-0--0h-6-0--0--0--|--0h-6-0--0h-6-3--3--0--| 


       PM PM         PM            PM         PM            PM   
  S  S S  S     S  S S  S  S E  E  S     S  S S  S  S E  E  S    
-------------|------------------------|------------------------| 
-------------|------------------------|------------------------| 
-------------|------------------------|------------------------| 
-------------|------------------------|------------------------| 
-------------|------------------------|------------------------| 
-------------|------------------------|------------------------| 
--0h-6-0--0--|--0h-6-0--0h-6-0--0--0--|--0h-6-0--0h-6-0--0--0--| 


       PM            PM         PM            PM         PM            PM   
  S  S S  S  S E  E  S     S  S S  S  S E  E  S     S  S S  S  S E  E  S    
------------------------|------------------------|------------------------| 
------------------------|------------------------|------------------------| 
------------------------|------------------------|------------------------| 
------------------------|------------------------|------------------------| 
------------------------|------------------------|------------------------| 
------------------------|------------------------|------------------------| 
--0h-6-0--0h-6-0--0--0--|--0h-6-0--0h-6-0--0--0--|--0h-6-0--0h-6-0--0--0--| 


       PM            PM         PM PM         PM            PM   
  S  S S  S  S E  E  S     S  S S  S     S  S S  S  S E  E  S    
------------------------|-------------|------------------------| 
------------------------|-------------|------------------------| 
------------------------|-------------|------------------------| 
------------------------|-------------|------------------------| 
------------------------|-------------|------------------------| 
------------------------|-------------|------------------------| 
--0h-6-0--0h-6-0--0--0--|--0h-6-0--0--|--0h-6-0--0h-6-0--0--0--| 


       PM            PM         PM            PM         PM            PM   
  S  S S  S  S E  E  S     S  S S  S  S E  E  S     S  S S  S  S E  E  S    
------------------------|------------------------|------------------------| 
------------------------|------------------------|------------------------| 
------------------------|------------------------|------------------------| 
------------------------|------------------------|------------------------| 
------------------------|------------------------|------------------------| 
------------------------|------------------------|------------------------| 
--0h-6-0--0h-6-0--0--0--|--0h-6-0--0h-6-0--0--0--|--0h-6-0--0h-6-0--0--0--| 


       PM            PM         PM            PM         PM PM   
  S  S S  S  S E  E  S     S  S S  S  S E  E  S     S  S S  S    
------------------------|------------------------|-------------| 
------------------------|------------------------|-------------| 
------------------------|------------------------|-------------| 
------------------------|------------------------|-------------| 
------------------------|------------------------|-------------| 
------------------------|------------------------|-------------| 
--0h-6-0--0h-6-0--0--0--|--0h-6-0--0h-6-0--0--0--|--0h-6-0--0--| 


       PM      PM PM PM         PM      PM PM PM PM         PM      PM PM PM   
  S  S S  S  S E  E  S     S  S S  S  S E  E  E  S     S  S S  S  S E  E  S    
------------------------|---------------------------|------------------------| 
------------------------|---------------------------|------------------------| 
------------------------|---------------------------|------------------------| 
------------------------|---------------------------|------------------------| 
------------------------|---------------------------|------------------------| 
------------------------|---------------------------|------------------------| 
--0h-1-0--0h-1-0--0--0--|--0h-1-0--0h-1-0--0--0--0--|--0h-1-0--0h-1-0--0--0--| 


       PM      PM PM PM PM         PM      PM PM PM         PM      PM PM PM   
  S  S S  S  S E  E  E  S     S  S S  S  S E  E  S     S  S S  S  S E  E  S    
---------------------------|------------------------|------------------------| 
---------------------------|------------------------|------------------------| 
---------------------------|------------------------|------------------------| 
---------------------------|------------------------|------------------------| 
---------------------------|------------------------|------------------------| 
---------------------------|------------------------|------------------------| 
--0h-1-0--0h-1-0--0--0--0--|--0h-1-0--0h-1-0--0--0--|--0h-1-0--0h-1-0--0--0--| 


       PM      PM PM PM         PM      PM PM PM PM         PM      PM PM PM   
  S  S S  S  S E  E  S     S  S S  S  S E  E  E  S     S  S S  S  S E  E  S    
------------------------|---------------------------|------------------------| 
------------------------|---------------------------|------------------------| 
------------------------|---------------------------|------------------------| 
------------------------|---------------------------|------------------------| 
------------------------|---------------------------|------------------------| 
------------------------|---------------------------|------------------------| 
--0h-1-0--0h-1-0--0--0--|--0h-1-0--0h-1-0--0--0--0--|--0h-1-0--0h-1-0--0--0--| 


       PM      PM PM PM PM         PM      PM PM PM         PM      PM PM PM   
  S  S S  S  S E  E  E  S     S  S S  S  S E  E  S     S  S S  S  S E  E  S    
---------------------------|------------------------|------------------------| 
---------------------------|------------------------|------------------------| 
---------------------------|------------------------|------------------------| 
---------------------------|------------------------|------------------------| 
---------------------------|------------------------|------------------------| 
---------------------------|------------------------|------------------------| 
--0h-1-0--0h-1-0--0--0--0--|--0h-1-0--0h-1-0--0--0--|--0h-1-0--0h-1-0--0--0--| 


       PM      PM PM PM         PM      PM PM PM PM         PM      PM PM PM   
  S  S S  S  S E  E  S     S  S S  S  S E  E  E  S     S  S S  S  S E  E  S    
------------------------|---------------------------|------------------------| 
------------------------|---------------------------|------------------------| 
------------------------|---------------------------|------------------------| 
------------------------|---------------------------|------------------------| 
------------------------|---------------------------|------------------------| 
------------------------|---------------------------|------------------------| 
--0h-1-0--0h-1-0--0--0--|--0h-1-0--0h-1-0--0--0--0--|--0h-1-0--0h-1-0--0--0--| 


       PM      PM PM PM PM         PM      PM PM PM         PM      PM PM PM   
  S  S S  S  S E  E  E  S     S  S S  S  S E  E  S     S  S S  S  S E  E  S    
---------------------------|------------------------|------------------------| 
---------------------------|------------------------|------------------------| 
---------------------------|------------------------|------------------------| 
---------------------------|------------------------|------------------------| 
---------------------------|------------------------|------------------------| 
---------------------------|------------------------|------------------------| 
--0h-1-0--0h-1-0--0--0--0--|--0h-1-0--0h-1-0--0--0--|--0h-1-0--0h-1-0--0--0--| 


       PM      PM PM PM         PM      PM PM PM PM         PM      PM PM PM   
  S  S S  S  S E  E  S     S  S S  S  S E  E  E  S     S  S S  S  S E  E  S    
------------------------|---------------------------|------------------------| 
------------------------|---------------------------|------------------------| 
------------------------|---------------------------|------------------------| 
------------------------|---------------------------|------------------------| 
------------------------|---------------------------|------------------------| 
------------------------|---------------------------|------------------------| 
--0h-1-0--0h-1-0--0--0--|--0h-1-0--0h-1-0--0--0--0--|--0h-1-0--0h-1-0--0--0--| 


       PM      PM PM PM PM         PM      PM PM PM         PM      PM PM PM   
  S  S S  S  S E  E  E  S     S  S S  S  S E  E  S     S  S S  S  S E  E  S    
---------------------------|------------------------|------------------------| 
---------------------------|------------------------|------------------------| 
---------------------------|------------------------|------------------------| 
---------------------------|------------------------|------------------------| 
---------------------------|------------------------|------------------------| 
---------------------------|------------------------|------------------------| 
--0h-1-0--0h-1-0--0--0--0--|--0h-1-0--0h-1-0--0--0--|--0h-1-0--0h-1-0--0--0--| 


       PM      PM PM PM         PM            PM         PM      PM PM PM   
  S  S S  S  S E  E  S     S  S S  S  S E  E  S     S  S S  S  S E  E  S    
------------------------|------------------------|------------------------| 
------------------------|------------------------|------------------------| 
------------------------|------------------------|------------------------| 
------------------------|------------------------|------------------------| 
------------------------|------------------------|------------------------| 
------------------------|------------------------|------------------------| 
--0h-6-0--0h-6-0--0--0--|--0h-6-0--0h-6-3--3--0--|--0h-6-0--0h-6-0--0--0--| 


       PM            PM         PM      PM PM PM         PM            PM   
  S  S S  S  S E  E  S     S  S S  S  S E  E  S     S  S S  S  S E  E  S    
------------------------|------------------------|------------------------| 
------------------------|------------------------|------------------------| 
------------------------|------------------------|------------------------| 
------------------------|------------------------|------------------------| 
------------------------|------------------------|------------------------| 
------------------------|------------------------|------------------------| 
--0h-6-0--0h-6-3--3--0--|--0h-6-0--0h-6-0--0--0--|--0h-6-0--0h-6-3--3--0--| 


       PM PM         PM      PM PM PM         PM            PM   
  S  S S  S     S  S S  S  S E  E  S     S  S S  S  S E  E  S    
-------------|------------------------|------------------------| 
-------------|------------------------|------------------------| 
-------------|------------------------|------------------------| 
-------------|------------------------|------------------------| 
-------------|------------------------|------------------------| 
-------------|------------------------|------------------------| 
--0h-6-0--0--|--0h-6-0--0h-6-0--0--0--|--0h-6-0--0h-6-3--3--0--| 


       PM      PM PM PM         PM            PM         PM      PM PM PM   
  S  S S  S  S E  E  S     S  S S  S  S E  E  S     S  S S  S  S E  E  S    
------------------------|------------------------|------------------------| 
------------------------|------------------------|------------------------| 
------------------------|------------------------|------------------------| 
------------------------|------------------------|------------------------| 
------------------------|------------------------|------------------------| 
------------------------|------------------------|------------------------| 
--0h-6-0--0h-6-0--0--0--|--0h-6-0--0h-6-3--3--0--|--0h-6-0--0h-6-0--0--0--| 


       PM            PM         PM PM        PM    PM PM PM   
  S  S S  S  S E  E  S     S  S S  S      E  S  E  E  E  S    
------------------------|-------------||--------------------| 
------------------------|-------------||--------------------| 
------------------------|-------------||--------------------| 
------------------------|-------------||--9-----9-----------| 
------------------------|-------------||--------------------| 
------------------------|-------------||--7-----7-----------| 
--0h-6-0--0h-6-3--3--0--|--0h-6-0--0--||-----0-----0--0--0--| 


     PM    PM PM PM       PM    PM PM PM       PM    PM PM PM   
  E  S  E  E  E  S     E  S  E  E  E  S     E  S  E  E  E  S    
--------------------|--------------------|--------------------| 
--------------------|--------------------|--------------------| 
--------------------|--------------------|--------------------| 
--9-----9-----------|--9-----9-----------|--9-----9-----------| 
--------------------|--------------------|--------------------| 
--7-----7-----------|--7-----7-----------|--7-----7-----------| 
-----0-----0--0--0--|-----0-----0--0--0--|-----0-----0--0--0--| 


     PM    PM PM PM       PM    PM PM PM       PM PM     
  E  S  E  E  E  S     E  S  E  E  E  S     E  S  S      
--------------------|--------------------|------------|| 
--------------------|--------------------|------------|| 
--------------------|--------------------|------------|| 
--9-----9-----------|--9-----9-----------|--9---------|| 
--------------------|--------------------|------------|| 
--7-----7-----------|--7-----7-----------|--7---------|| 
-----0-----0--0--0--|-----0-----0--0--0--|-----0--0---|| 


       PM             PM                 PM             PM           
  S  S S  S  S S S  S S  S  S E     S  S S  S  S S S  S S  S  S E    
---------------------------------|---------------------------------| 
---------------------------------|---------------------------------| 
---------------------------------|---------------------------------| 
---------------------------------|---------------------------------| 
---------------------------------|---------------------------------| 
---------------------------------|---------------------------------| 
--0h-1-0--0h-1---0h-1-0--0h-1----|--0h-1-0--0h-1---0h-1-0--0h-1----| 


       PM             PM                 PM             PM           
  S  S S  S  S S S  S S  S  S E     S  S S  S  S S S  S S  S  S E    
---------------------------------|---------------------------------| 
---------------------------------|---------------------------------| 
---------------------------------|---------------------------------| 
---------------------------------|---------------------------------| 
---------------------------------|---------------------------------| 
---------------------------------|---------------------------------| 
--0h-1-0--0h-1---0h-1-0--0h-1----|--0h-1-0--0h-1---0h-1-0--0h-1----| 


       PM             PM PM PM PM         PM             PM           
  S  S S  S  S S S  S S  S  S  S     S  S S  S  S S S  S S  S  S E    
----------------------------------|---------------------------------| 
----------------------------------|---------------------------------| 
----------------------------------|---------------------------------| 
----------------------------------|---------------------------------| 
----------------------------------|---------------------------------| 
----------------------------------|---------------------------------| 
--0h-1-0--0h-1---0h-1-1--1--1--1--|--0h-1-0--0h-1---0h-1-0--0h-1----| 


       PM             PM                 PM             PM           
  S  S S  S  S S S  S S  S  S E     S  S S  S  S S S  S S  S  S E    
---------------------------------|---------------------------------| 
---------------------------------|---------------------------------| 
---------------------------------|---------------------------------| 
---------------------------------|---------------------------------| 
---------------------------------|---------------------------------| 
---------------------------------|---------------------------------| 
--0h-1-0--0h-1---0h-1-0--0h-1----|--0h-1-0--0h-1---0h-1-0--0h-1----| 


       PM             PM                 PM             PM PM PM PM   
  S  S S  S  S S S  S S  S  S E     S  S S  S  S S S  S S  S  S  S    
---------------------------------|----------------------------------| 
---------------------------------|----------------------------------| 
---------------------------------|----------------------------------| 
---------------------------------|----------------------------------| 
---------------------------------|----------------------------------| 
---------------------------------|----------------------------------| 
--0h-1-0--0h-1---0h-1-0--0h-1----|--0h-1-0--0h-1---0h-1-1--1--1--1--| 


       PM             PM                 PM             PM           
  S  S S  S  S S S  S S  S  S E     S  S S  S  S S S  S S  S  S E    
---------------------------------|---------------------------------| 
---------------------------------|---------------------------------| 
---------------------------------|---------------------------------| 
---------------------------------|---------------------------------| 
---------------------------------|---------------------------------| 
---------------------------------|---------------------------------| 
--0h-1-0--0h-1---0h-1-0--0h-1----|--0h-1-0--0h-1---0h-1-0--0h-1----| 


       PM             PM                 PM             PM           
  S  S S  S  S S S  S S  S  S E     S  S S  S  S S S  S S  S  S E    
---------------------------------|---------------------------------| 
---------------------------------|---------------------------------| 
---------------------------------|---------------------------------| 
---------------------------------|---------------------------------| 
---------------------------------|---------------------------------| 
---------------------------------|---------------------------------| 
--0h-1-0--0h-1---0h-1-0--0h-1----|--0h-1-0--0h-1---0h-1-0--0h-1----| 


       PM             PM PM PM PM         PM             PM           
  S  S S  S  S S S  S S  S  S  S     S  S S  S  S S S  S S  S  S E    
----------------------------------|---------------------------------| 
----------------------------------|---------------------------------| 
----------------------------------|---------------------------------| 
----------------------------------|---------------------------------| 
----------------------------------|---------------------------------| 
----------------------------------|---------------------------------| 
--0h-1-0--0h-1---0h-1-1--1--1--1--|--0h-1-0--0h-1---0h-1-0--0h-1----| 


       PM             PM                 PM             PM           
  S  S S  S  S S S  S S  S  S E     S  S S  S  S S S  S S  S  S E    
---------------------------------|---------------------------------| 
---------------------------------|---------------------------------| 
---------------------------------|---------------------------------| 
---------------------------------|---------------------------------| 
---------------------------------|---------------------------------| 
---------------------------------|---------------------------------| 
--0h-1-0--0h-1---0h-1-0--0h-1----|--0h-1-0--0h-1---0h-1-0--0h-1----| 


       PM             PM                 PM             PM PM PM PM   
  S  S S  S  S S S  S S  S  S E     S  S S  S  S S S  S S  S  S  S    
---------------------------------|----------------------------------| 
---------------------------------|----------------------------------| 
---------------------------------|----------------------------------| 
---------------------------------|----------------------------------| 
---------------------------------|----------------------------------| 
---------------------------------|----------------------------------| 
--0h-1-0--0h-1---0h-1-0--0h-1----|--0h-1-0--0h-1---0h-1-1--1--1--1--| 


       PM       PM           PM       PM           PM       PM     
  E.   E.  E.   Q       E.   E.  E.   Q       E.   E.  E.   Q      
---------------------|---------------------|---------------------| 
---------------------|---------------------|---------------------| 
---------------------|---------------------|---------------------| 
---------------------|---------------------|---------------------| 
---------------------|---------------------|---------------------| 
--3b-------1b--------|--3b-------1b--------|--3b-------1b--------| 
-------3--------2----|-------3--------2----|-------3--------2----| 


       PM       PM           PM       PM          PM       PM     
  E.   E.  E.   Q       E.   E.  E.   E.     E.   E.  E.   Q      
---------------------|--------------------|---------------------| 
---------------------|--------------------|---------------------| 
---------------------|--------------------|---------------------| 
---------------------|--------------------|---------------------| 
---------------------|--------------------|---------------------| 
--3b-------1b--------|--3b-------1b-------|--3b-------1b--------| 
-------3--------2----|-------3--------2---|-------3--------2----| 


       PM       PM           PM       PM           PM       PM     
  E.   E.  E.   Q       E.   E.  E.   Q       E.   E.  E.   Q      
---------------------|---------------------|---------------------| 
---------------------|---------------------|---------------------| 
---------------------|---------------------|---------------------| 
---------------------|---------------------|---------------------| 
---------------------|---------------------|---------------------| 
--3b-------1b--------|--3b-------1b--------|--3b-------1b--------| 
-------3--------2----|-------3--------2----|-------3--------2----| 


       PM       PM          PM       PM           PM       PM     
  E.   E.  E.   E.     E.   E.  E.   Q       E.   E.  E.   Q      
--------------------|---------------------|---------------------| 
--------------------|---------------------|---------------------| 
--------------------|---------------------|---------------------| 
--------------------|---------------------|---------------------| 
--------------------|---------------------|---------------------| 
--3b-------1b-------|--3b-------1b--------|--3b-------1b--------| 
-------3--------2---|-------3--------2----|-------3--------2----| 


       PM       PM           PM       PM           PM       PM    
  E.   E.  E.   Q       E.   E.  E.   Q       E.   E.  E.   E.    
---------------------|---------------------|--------------------| 
---------------------|---------------------|--------------------| 
---------------------|---------------------|--------------------| 
---------------------|---------------------|--------------------| 
---------------------|---------------------|--------------------| 
--3b-------1b--------|--3b-------1b--------|--3b-------1b-------| 
-------3--------2----|-------3--------2----|-------3--------2---| 


       PM       PM           PM       PM           PM       PM     
  E.   E.  E.   Q       E.   E.  E.   Q       E.   E.  E.   Q      
---------------------|---------------------|---------------------| 
---------------------|---------------------|---------------------| 
---------------------|---------------------|---------------------| 
---------------------|---------------------|---------------------| 
---------------------|---------------------|---------------------| 
--3b-------1b--------|--3b-------1b--------|--3b-------1b--------| 
-------3--------2----|-------3--------2----|-------3--------2----| 


       PM       PM           PM       PM        PM PM PM    PM PM PM     
  E.   E.  E.   Q       E.   E.  E.   E.     E  S  S  E  E  S  S  E  S   
---------------------|--------------------|----------------------------| 
---------------------|--------------------|----------------------------| 
---------------------|--------------------|----------------------------| 
---------------------|--------------------|----------------------------| 
---------------------|--------------------|----------------------------| 
--3b-------1b--------|--3b-------1b-------|----------------------------| 
-------3--------2----|-------3--------2---|--1--0--0--0--1--0--0--0----| 


     PM PM PM    PM PM PM         PM PM PM    PM PM PM     
  E  S  S  E  E  S  S  E  S    E  S  S  E  E  S  S  E  S   
----------------------------|----------------------------| 
----------------------------|----------------------------| 
----------------------------|----------------------------| 
----------------------------|----------------------------| 
----------------------------|----------------------------| 
----------------------------|----------------------------| 
--1--0--0--0--1--0--0--0----|--1--0--0--0--1--0--0--0----| 


     PM PM PM    PM PM PM         PM PM PM    PM PM PM PM   
  E  S  S  E  E  S  S  E  S    E  S  S  E  E  S  S  S  S    
----------------------------|-----------------------------| 
----------------------------|-----------------------------| 
----------------------------|-----------------------------| 
----------------------------|-----------------------------| 
----------------------------|-----------------------------| 
----------------------------|-----------------------------| 
--1--0--0--0--1--0--0--0----|--1--0--0--0--1--1--1--1--1--| 


     PM PM PM    PM PM PM         PM PM PM    PM PM PM     
  E  S  S  E  E  S  S  E  S    E  S  S  E  E  S  S  E  S   
----------------------------|----------------------------| 
----------------------------|----------------------------| 
----------------------------|----------------------------| 
----------------------------|----------------------------| 
----------------------------|----------------------------| 
----------------------------|----------------------------| 
--1--0--0--0--1--0--0--0----|--1--0--0--0--1--0--0--0----| 


     PM PM PM    PM PM PM         PM PM PM    PM PM PM     
  E  S  S  E  E  S  S  E  S    E  S  S  E  E  S  S  E  S   
----------------------------|----------------------------| 
----------------------------|----------------------------| 
----------------------------|----------------------------| 
----------------------------|----------------------------| 
----------------------------|----------------------------| 
----------------------------|----------------------------| 
--1--0--0--0--1--0--0--0----|--1--0--0--0--1--0--0--0----| 


     PM PM PM    PM PM PM PM       PM PM PM    PM PM PM     
  E  S  S  E  E  S  S  S  S     E  S  S  E  E  S  S  E  S   
-----------------------------|----------------------------| 
-----------------------------|----------------------------| 
-----------------------------|----------------------------| 
-----------------------------|----------------------------| 
-----------------------------|----------------------------| 
-----------------------------|----------------------------| 
--1--0--0--0--1--1--1--1--1--|--1--0--0--0--1--0--0--0----| 


     PM PM PM    PM PM PM         PM PM PM    PM PM PM     
  E  S  S  E  E  S  S  E  S    E  S  S  E  E  S  S  E  S   
----------------------------|----------------------------| 
----------------------------|----------------------------| 
----------------------------|----------------------------| 
----------------------------|----------------------------| 
----------------------------|----------------------------| 
----------------------------|----------------------------| 
--1--0--0--0--1--0--0--0----|--1--0--0--0--1--0--0--0----| 


     PM PM PM    PM PM PM         PM PM PM    PM PM PM PM   
  E  S  S  E  E  S  S  E  S    E  S  S  E  E  S  S  S  S    
----------------------------|-----------------------------| 
----------------------------|-----------------------------| 
----------------------------|-----------------------------| 
----------------------------|-----------------------------| 
----------------------------|-----------------------------| 
----------------------------|-----------------------------| 
--1--0--0--0--1--0--0--0----|--1--0--0--0--1--1--1--1--1--| 


     PM PM PM    PM PM PM         PM PM PM    PM PM PM     
  E  S  S  E  E  S  S  E  S    E  S  S  E  E  S  S  E  S   
----------------------------|----------------------------| 
----------------------------|----------------------------| 
----------------------------|----------------------------| 
----------------------------|----------------------------| 
----------------------------|----------------------------| 
----------------------------|----------------------------| 
--1--0--0--0--1--0--0--0----|--1--0--0--0--1--0--0--0----| 


     PM PM PM    PM PM PM         PM PM PM    PM PM PM     
  E  S  S  E  E  S  S  E  S    E  S  S  E  E  S  S  E  S   
----------------------------|----------------------------| 
----------------------------|----------------------------| 
----------------------------|----------------------------| 
----------------------------|----------------------------| 
----------------------------|----------------------------| 
----------------------------|----------------------------| 
--1--0--0--0--1--0--0--0----|--1--0--0--0--1--0--0--0----| 


     PM PM PM    PM PM PM PM                                     
  E  S  S  E  E  S  S  S  S     E  H           H.           E    
-----------------------------|--------------|------------------| 
-----------------------------|--------------|------------------| 
-----------------------------|--------------|------------------| 
-----------------------------|--------------|------------------| 
-----------------------------|--------------|------------------| 
-----------------------------|--------------|------------------| 
--1--0--0--0--1--1--1--1--1--|--0-----------|------------------| 


       PM            PM         PM            PM         PM            PM   
  S  S S  S  S E  E  S     S  S S  S  S E  E  S     S  S S  S  S E  E  S    
------------------------|------------------------|------------------------| 
------------------------|------------------------|------------------------| 
------------------------|------------------------|------------------------| 
------------------------|------------------------|------------------------| 
------------------------|------------------------|------------------------| 
------------------------|------------------------|------------------------| 
--0h-6-0--0h-6-0--0--0--|--0h-6-0--0h-6-0--0--0--|--0h-6-0--0h-6-0--0--0--| 


       PM            PM         PM            PM         PM            PM   
  S  S S  S  S E  E  S     S  S S  S  S E  E  S     S  S S  S  S E  E  S    
------------------------|------------------------|------------------------| 
------------------------|------------------------|------------------------| 
------------------------|------------------------|------------------------| 
------------------------|------------------------|------------------------| 
------------------------|------------------------|------------------------| 
------------------------|------------------------|------------------------| 
--0h-6-0--0h-6-0--0--0--|--0h-6-0--0h-6-0--0--0--|--0h-6-0--0h-6-0--0--0--| 


       PM PM         PM            PM         PM            PM   
  S  S S  S     S  S S  S  S E  E  S     S  S S  S  S E  E  S    
-------------|------------------------|------------------------| 
-------------|------------------------|------------------------| 
-------------|------------------------|------------------------| 
-------------|------------------------|------------------------| 
-------------|------------------------|------------------------| 
-------------|------------------------|------------------------| 
--0h-6-0--0--|--0h-6-0--0h-6-0--0--0--|--0h-6-0--0h-6-0--0--0--| 


       PM            PM         PM            PM         PM            PM   
  S  S S  S  S E  E  S     S  S S  S  S E  E  S     S  S S  S  S E  E  S    
------------------------|------------------------|------------------------| 
------------------------|------------------------|------------------------| 
------------------------|------------------------|------------------------| 
------------------------|------------------------|------------------------| 
------------------------|------------------------|------------------------| 
------------------------|------------------------|------------------------| 
--0h-6-0--0h-6-0--0--0--|--0h-6-0--0h-6-0--0--0--|--0h-6-0--0h-6-0--0--0--| 


       PM            PM         PM PM         PM            PM   
  S  S S  S  S E  E  S     S  S S  S     S  S S  S  S E  E  S    
------------------------|-------------|------------------------| 
------------------------|-------------|------------------------| 
------------------------|-------------|------------------------| 
------------------------|-------------|------------------------| 
------------------------|-------------|------------------------| 
------------------------|-------------|------------------------| 
--0h-6-0--0h-6-0--0--0--|--0h-6-0--0--|--0h-6-0--0h-6-0--0--0--| 


       PM            PM         PM            PM         PM            PM   
  S  S S  S  S E  E  S     S  S S  S  S E  E  S     S  S S  S  S E  E  S    
------------------------|------------------------|------------------------| 
------------------------|------------------------|------------------------| 
------------------------|------------------------|------------------------| 
------------------------|------------------------|------------------------| 
------------------------|------------------------|------------------------| 
------------------------|------------------------|------------------------| 
--0h-6-0--0h-6-0--0--0--|--0h-6-0--0h-6-0--0--0--|--0h-6-0--0h-6-0--0--0--| 


       PM            PM         PM            PM         PM PM   
  S  S S  S  S E  E  S     S  S S  S  S E  E  S     S  S S  S    
------------------------|------------------------|-------------| 
------------------------|------------------------|-------------| 
------------------------|------------------------|-------------| 
------------------------|------------------------|-------------| 
------------------------|------------------------|-------------| 
------------------------|------------------------|-------------| 
--0h-6-0--0h-6-0--0--0--|--0h-6-0--0h-6-0--0--0--|--0h-6-0--0--| 


       PM            PM         PM            PM         PM            PM   
  S  S S  S  S E  E  S     S  S S  S  S E  E  S     S  S S  S  S E  E  S    
------------------------|------------------------|------------------------| 
------------------------|------------------------|------------------------| 
------------------------|------------------------|------------------------| 
------------------------|------------------------|------------------------| 
------------------------|------------------------|------------------------| 
------------------------|------------------------|------------------------| 
--0h-6-0--0h-6-0--0--0--|--0h-6-0--0h-6-0--0--0--|--0h-6-0--0h-6-0--0--0--| 


       PM            PM         PM            PM         PM            PM   
  S  S S  S  S E  E  S     S  S S  S  S E  E  S     S  S S  S  S E  E  S    
------------------------|------------------------|------------------------| 
------------------------|------------------------|------------------------| 
------------------------|------------------------|------------------------| 
------------------------|------------------------|------------------------| 
------------------------|------------------------|------------------------| 
------------------------|------------------------|------------------------| 
--0h-6-0--0h-6-0--0--0--|--0h-6-0--0h-6-0--0--0--|--0h-6-0--0h-6-0--0--0--| 


       PM PM        PM    PM PM PM       PM    PM PM PM       PM    PM PM PM   
  S  S S  S      E  S  E  E  E  S     E  S  E  E  E  S     E  S  E  E  E  S    
-------------||--------------------|--------------------|--------------------| 
-------------||--------------------|--------------------|--------------------| 
-------------||--------------------|--------------------|--------------------| 
-------------||--9-----9-----------|--9-----9-----------|--9-----9-----------| 
-------------||--------------------|--------------------|--------------------| 
-------------||--7-----7-----------|--7-----7-----------|--7-----7-----------| 
--0h-6-0--0--||-----0-----0--0--0--|-----0-----0--0--0--|-----0-----0--0--0--| 


     PM    PM PM PM       PM    PM PM PM       PM    PM PM PM       PM PM     
  E  S  E  E  E  S     E  S  E  E  E  S     E  S  E  E  E  S     E  S  S      
--------------------|--------------------|--------------------|------------|| 
--------------------|--------------------|--------------------|------------|| 
--------------------|--------------------|--------------------|------------|| 
--9-----9-----------|--9-----9-----------|--9-----9-----------|--9---------|| 
--------------------|--------------------|--------------------|------------|| 
--7-----7-----------|--7-----7-----------|--7-----7-----------|--7---------|| 
-----0-----0--0--0--|-----0-----0--0--0--|-----0-----0--0--0--|-----0--0---|| 


  E  E     
--------|| 
--------|| 
--------|| 
--9-----|| 
--------|| 
--7-----|| 
--------|| 
		  

See also:

tabs Deep Purple - Deep Purple - Smoke On The Water tabs Ira! - Dias de Luta (Intro - Acustico Mtv) tabs Deep Purple - Smoke on The Water (ver.3) tabs Deep Purple - Into The Fire tabs Deep Purple - When a Blind man cries tabs Deep Purple - Highway Star
e-chords

Other versions:

tabs Meshuggah - Concatenation
auto scroll beats size up size down change color hide chords drawings
tab show chords e-chords YouTube Clip e-chords hide all tabs e-chords go to top tab

share