Men At Work

Overkill (bestt) Tab

Men At Work

Difficulty: ExpertExpert

by panda%5Fbueno

tuner correct add songbook print version text version save to e-mail
chordsukulelecavacokeyboardtabbassdrumsharmonicsflute Guitar Pro
close

there isn't a video lesson for this song

request
chords

Overkill (bestt)

  		Overkill - Men at Work 
 
#1   
e----------------------------------- 
B-----------------------------------           you have 
G-----------------------------------        play these 
D---9-x-x-9-x-x-9-x-9-x-x-9-x-x-9-x-        two parts at  
A---9-x-x-9-x-x-9-x-9-x-x-9-x-x-9-x-         once with     
E---7-x-x-7-x-x-7-x-6-x-x-6-x-x-6-x-         no empty 
                                              spaces 
#2 
e-----------------------------------        x means keep 
B-----------------------------------        pressing the 
G-----------------------------------       chord but   
D---7-x-x-7-x-x-7-x-7-x-x-7-x-x-7-x-      with less 
A---7-x-x-7-x-x-7-x-7-x-x-7-x-x-7-x-      strengh.It  
E---5-x-x-5-x-x-5-x-4-x-x-4-x-x-4-x-      changes during 
                                           the song. 
  
#3 
e----------------------------------------- 
B----------------------------------------- 
G----------------------------------------- 
D---11-x-x-11-x-x-11-x-11-x-x-11-x-x-11-x- 
A---11-x-x-11-x-x-11-x-11-x-x-11-x-x-11-x- 
E---09-x-x-09-x-x-09-x-09-x-x-09-x-x-09-x- 
 
#4 
e----------------------------------- 
B----------------------------------- 
G----------------------------------- 
D---9-x-x-9-x-x-9-x-9-x-x-9-x-x-9-x- 
A---7-x-x-9-x-x-9-x-9-x-x-9-x-x-9-x- 
E---7-x-x-7-x-x-7-x-7-x-x-7-x-x-7-x- 
 
#5 
e----------------------------------- 
B----------------------------------- 
G----------------------------------- 
D---5-x-x-5-x-x-5-x-7-7-7-7-7-7-7-7- 
A---5-x-x-5-x-x-5-x-7-7-7-7-7-7-7-7- 
E---3-x-x-3-x-x-3-x-5-5-5-5-5-5-5-5- 
 
#1 
I can't get to sleep 
#2 
I think about the implications 
#1 
Of diving in too deep 
#2 
And possibly the complications 
#1 
Especially at night 
#2 
I worry over situations 
#1 
I know will be alright 
#2 
Perhaps it's just imagination 
 
#3                  #4 
Day after day it reappears 
#3                        #1 
Night after night my heartbeat shows the fear 
#2                     #5 
Ghosts appear and fade away      
 
Alone between the sheets 
Only brings exasperation 
It's time to walk the streets 
Smell the desperation 
At least there's pretty lights 
And though there's little variation 
It nullifies the night 
From overkill 
 
 
Its my second song with no mystakes enjoy it. 

	  

Search Paypal
auto scroll beats size up size down change color hide chords drawings
tab show chords e-chords YouTube Clip e-chords hide all tabs e-chords go to top tab

share with facebook