Men At Work

Overkill Tab

Men At Work

Difficulty: EasyEasy

by MORGANGC

tuner correct add songbook print version text version save to e-mail
chordsukuleleukulelecavacokeyboardtabbassdrumsharmonicsflute Guitar Pro
close
overkill-by-men-at-work

there is a video lesson for this song

view more
chords

Overkill

  		MEN AT WORK - OVERKILL (SOLO)  
  
  
e-------------------------------------  
B-----------------------------5-------  
G--8/9~~--11--9-8/1~~/4-6-7-----------  
D-------------------------------------  
A-------------------------------------  
E-------------------------------------  
  
  
	  (abafados)  	  
e-------------------------------------  
B-------------------------------------  
G--7-6~~--4-2-1-1~~---------------------  
D-------------------------------------  
A-------------------------------------  
E-------------------------------------  
  
  
e-------------------------------------  
B-------------------------------------  
G-2h1---------------------------------  
D-----2-2-4h2---2-2-------------------  
A-------------4-----4/9----------------  
E-------------------------------------  
  
  
e-------------------------------------  
B-------------------------------------  
G------11h9/4---------11h9------------  
D---9--11h9/4---9h11------------------  
A-------------------------------------  
E-------------------------------------  
  
  
e------------------------------------  
B------------------------------------  
G--8h9---4h6-------------------------  
D-------------4h6--------------------  
A------------------4/2~~-------------  
E------------------------------------  
  
                      (abafados)     
e-------------------------------------  
B-------------------------------------  
G-------------------------------------  
D----------2--------------------------  
A--2--4-5-----5-4~~----2--------------  
E--------------------------5-4-4------  
  
    
e-------------------------------------  
B-------------------------------------  
G----------------------4--6-8-9-------  
D---------------4-6-7-----------------  
A------2-4-6-7------------------------  
E--4-5--------------------------------  
  
e-------------9-11-12------------------  
B-----9-11-12--------------------------  
G-11-----------------------------------  
D--------------------------------------  
A--------------------------------------  
E--------------------------------------  
  
  
e--14--16~~--14h12h11h12--------------  
B-------------------------14/---------  
G-------------------------------------  
D-------------------------------------  
A-------------------------------------  
E-------------------------------------  
  
  
  
solo do sax apos o solo da guitarra ..  
  
e---12-11-----------------------------  
B----------12-------------------------  
G-------------13/---------------------  
D-------------------------------------  
A-------------------------------------  
E-------------------------------------  
  
e----12--14--11--9--11-8--9--11-12~~--  
B-------------------------------------  
G-------------------------------------  
D-------------------------------------  
A-------------------------------------  
E-------------------------------------  
  
  
legenda   
  
~~:  deixe soar  
 h:  nota ligada (triplet)  
/:  arraste ateh o inicio (ouša na musica o local correto)  
^~:  bend (levanta a corda 1 tom)  


	  

Search Paypal
auto scroll beats size up size down change color hide chords drawings
tab show chords e-chords YouTube Clip e-chords hide all tabs e-chords go to top tab

share with facebook