Melissa Etheridge

Angels Would Fall

Melissa Etheridge

tabs

by  BOMBAXXX

save to print version add songbook text version e-mail correct tuner
chordsukulelecavacokeyboardtabbassdrumsharmonicaflute Guitar Pro
close

there isn't a video lesson for this song

chords

Angels Would Fall

	  		 
Tuning: 
You can pretty much play this for All The verses. 
e|--0-0-0----0-0-0----3-3-3----2-2-2---------------------------------------------------| 
B|--0-0-0----1-1-1----3-3-3----3-3-3---------------------------------------------------| 
G|--0-0-0----0-0-0----0-0-0----2-2-2---------------------------------------------------| 
D|--2-2-2----2-2-2----0-0-0------------------------------------------------------------| 
A|--2-2-2----3-3-3----2-2-2------------------------------------------------------------| 
E|--0-0-0-------------3-3-3------------------------------------------------------------| 


For the intro and Chorus i Play It Like this: 


e|0-0--3-3-3-2---2-0-0-0-0-3-3-3-3-2--| 
B|0-1--3-3-3-3---3-0-0-1-1-3-3-3-3-3--| 
G|0-0--0-0-0-2---2-0-0-0-0-0-0-0-0-2--| 
D|2-2--0-0-0-------2-2-2-2-0-0-0-0----| 
A|2-3--2-2-2-------2-2-3-3-2-2-2-2----| 
E|0----3-3-3-------0-0-----3-3-3-3----| 
 The Whole Song is pretty Much just a variation Of those chords. Have fun! 
		  

See also:

tabs Bon Jovi - It's My Life tabs Kiss - Forever tabs Aerosmith - Dream On tabs Foo Fighters - Everlong (acústico) tabs The Doors - People Are Strange tabs The Offspring - All I Want
e-chords

Other versions:

tabs Melissa Etheridge - Angels Would Fall
auto scroll beats size up size down change color hide chords drawings
tab show chords e-chords YouTube Clip e-chords hide all tabs e-chords go to top tab

share