Megaman

Concrete Jungle Tab

Megaman

Difficulty: AdvancedAdvanced

by VsWorld

tuner correct add songbook print version text version save to e-mail
chordsukulelecavacokeyboardtabbassdrumsharmonicsflute Guitar Pro
close

there isn't a video lesson for this song

chords

Concrete Jungle

  		|--------------------------------------------------------------------------------------------------------------| 
|--------------------------------------------12-12-12--9h11h12--14-14-14--11h12h14---14--14--16--14--12--------| 
|----13-13-13--10h11h13--15-15-15--12h13h15--------------------------------------------------------------15----| 
|--------------------------------------------------------------------------------------------------------------| 
|--------------------------------------------------------------------------------------------------------------| 
|--------------------------------------------------------------------------------------------------------------| 

|--------------------------------------------------------------------------------------------------------------| 
|---12---------------------------------------------------------------------------------------------------------| 
|-------15--13--11--13-16-13-----------------------------------------------------------------------------------| 
|--------------------------------------------------------------------------------------------------------------| 
|--------------------------------------------------------------------------------------------------------------| 
|--------------------------------------------------------------------------------------------------------------| 

|-----------------------------------------------------------------------------------------------------------14-| 
|----16--17--17-19-17-16-17-16-14----17-16---16-17-16-14-16-14----------------------14-16-17-16-14--16--17-----| 
|---------------------------------16---------------------------16-15--16--13--15-16----------------------------| 
|--------------------------------------------------------------------------------------------------------------| 
|--------------------------------------------------------------------------------------------------------------| 
|--------------------------------------------------------------------------------------------------------------| 

|---13--14--15-----------14h19p14--14h19p14--14h1914--14h19p14--16h21p16--16h21p16--16h21p16--16h21p16---------| 
|----------------------16--------16--------16-------16--------18--------18--------18--------18-----------------| 
|--------------------------------------------------------------------------------------------------------------| 
|--------------------------------------------------------------------------------------------------------------| 
|--------------------------------------------------------------------------------------------------------------| 
|--------------------------------------------------------------------------------------------------------------| 

|-----11h14p11--11h14p11--11h14p11--11h14p11---16-14-13-11-14-13-11--------------------------------------------| 
|---12--------12--------12--------12--------12----------------------12-16-14-12-11-14-12-11-9------------------| 
|--------------------------------------------------------------------------------------------------------------| 
|--------------------------------------------------------------------------------------------------------------| 
|--------------------------------------------------------------------------------------------------------------| 
|--------------------------------------------------------------------------------------------------------------| 
	  

auto scroll beats size up size down change color hide chords drawings
tab show chords e-chords YouTube Clip e-chords hide all tabs e-chords go to top tab

share with facebook

Search Paypal