Meg Myers

Go

Meg Myers

tabs nolevel nolevel

by  RENEJUNIOR

save to print version add songbook text version e-mail correct tuner
chordsukulelecavacokeyboardtabbassdrumsharmonicaflute Guitar Pro
close

there isn't a video lesson for this song

chords

Go

	  		

Intro: 

e|-------------------------------------------------------------------------------| 
B|-------------------------------------------------------------------------------| 
G|-------------------------------------------------------------------------------| 
D|--12-12-12-12-12-12-12-12------------------------------------------------------| 
A|--------------------------11-11-11-12-12-12-12---------------------------------| 
D|-----------------------------------------------11-11-11-12-12-12-6-6-6-7-7-7-7-| 

Verce: Use palm mute... 

e|--------------------| 
B|--------------------| 
G|--7-7-7-7-7-7/0-----| 
D|------------7/0-----| 
A|--------------------| 
D|--------------------| 

Coro: Go!!!! 

e|--------------------------------------------------------------------| 
B|--------------------------------------------------------------------| 
G|--7-7-7-7-7-7-------------------------------------------------------| 
D|--7-7-7-7-7-7-6-6-6-7-7-7-7-11-11-11-12-12-12-12-12-6-6-6-7-7-7-7---| 
A|--5-5-5-5-5-5-6-6-6-7-7-7-7-11-11-11-12-12-12-12-12-6-6-6-7-7-7-7---| 
D|--------------6-6-6-7-7-7-7-11-11-11-12-12-12-12-12-6-6-6-7-7-7-7---| 

Verce 2: 

e|---------------------------------------------------------------------------| 
B|---------------------------------------------------------------------------| 
G|---------------------------------------------------------------------------| 
D|---------------------------------------------------------------------------| 
A|--7/5-5-5-5-5-5-7\8-8-8-8-8-8-7/5-5-5-5-5-5-7\12-12-12-12-12-12------------| 
D|---------------------------------------------------------------------------| 




************************************ 

| /   slide up 
| \   slide down 
| h   hammer-on 
| p   pull-off 
| ~   vibrato 
| +   harmonic 
| x   Mute note 
| b   Bend 
| pb  Pre-bend 
| br  Bend release 
| pbr Pre-bend release 
| brb Bend release bend 

************************************ 
		  

See also:

tabs Deep Purple - Sometimes a Feel Like Screaming tabs Deep Purple - Mistreated tabs Deep Purple - Smoke on the Water (ver. 2) tabs Ira! - Vitrine Viva tabs Doa - Sexyest Girl tabs Deep Purple - Ted The Mechanic
e-chords

Other versions:

tabs Pearl Jam - Go tabs Meg Myers - Go tabs The Black Keys - Go tabs Hell Or Highwater - Go Alone tabs Audio Adrenaline - Go And Be tabs Azul Violeta - Go Billy Go
auto scroll beats size up size down change color hide chords drawings
tab show chords e-chords YouTube Clip e-chords hide all tabs e-chords go to top tab

share with facebook