MC Lan

home > MC Lan

Rabetao Tab

MC Lan

Difficulty: nolevelnolevel

by gustsilva

tuner correct add songbook print version text version save to e-mail
chordsukulelecavacokeyboardtabbassdrumsharmonicsflute Guitar Pro
chords

Rabetao

	  
E|------------------------------------------| 
B|------------------------------------------| 
G|------------------------------------------| 
D|------------------------------------------| 
A|-1-1-3-4--3--4-3-1-3-1--------------------| 
E|------------------------------------------| 

Tô xonadão dão, dão, dão... dão nesse bundão 
E|------------------------------------------| 
B|------------------------------------------| 
G|------------------------------------------| 
D|----------3-------------------------------| 
A|-1-1-3-4---3--4-3-1-3-1-------------------| 
E|------------------------------------------| 

Vai rabetão, tão... tão, tão, tão no chão 
E|------------------------------------------| 
B|------------------------------------------| 
G|------------------------------------------| 
D|------------------------------------------| 
A|-1-1-3-4--3--4-3-1-3-1--------------------| 
E|------------------------------------------| 

Vai rabetão, tão, tão... tão, tão, tão no chão 
E|------------------------------------------| 
B|------------------------------------------| 
G|------------------------------------------| 
D|----------3-------------------------------| 
A|-1-1-3-4---3--4-3-1-3-1-------------------| 
E|------------------------------------------| 
	  

there isn't a video lesson for this song

request
Search
auto scroll beats size up size down change color hide chords drawings
tab show chords e-chords YouTube Clip e-chords hide all tabs e-chords go to top tab