Maxwell

Whenever, wherever, whatever

Maxwell

tabs Expert expert

by  ETHNIK

save to print version add songbook text version e-mail correct tuner
chordsukulelecavacokeyboardtabbassdrumsharmonicaflute Guitar Pro
close
whenever-wherever-whatever-by-maxwell

there is a video lesson for this song

chords

Whenever, wherever, whatever

	  		Introdušao: 
 
           Am7                      F#m 
E|-----------------------------------2-----------| 
B|------5--7---------------------2--------2------| 
G|----6--6---6-6-6h7-6--------2----2---2---------| 
D|---7---------------------4---------------------| 
A|-0---------------------------------------------| 
E|-----------------------2-----------------------| 
 
   Bm       -    E                       Am7 
E|-------2-2-2h4-4s5--5-----4--2--0-*----------------| 
B|----------------------------------*----5-5-----5---| 
G|-----2----------------------------*---6-6-----6----| 
D|---4------------------------------*--7-------7-----| 
A|-2------------------7---7---------*-0-------0------| 
E|----------------------------------*----------------| 
 
 
Verse 1: 
 
            Am7                           F#m 
E|---------------------------------*------------------------| 
B|--------5-------7---------5------*---------10------10-----| 
G|------6------6-------6-----------*-------9------9---------| 
D|----7----------------------------*----11------------------| 
A|-0-------------------------------*-9----------------------| 
E|---------------------------------*------------------------| 
         Lead me on girl if you must  Take my heart and my love 
 
 
    Bm                E 
E|------------*--------------------------------------| 
B|----------3-*-------------7-----------5---7---5----| 
G|-------2----*----------9-----9------6---6---6------| 
D|-----4------*-------9-------------7----------------| 
A|--2---------*----7--------------0------------------| 
E|------------*--------------------------------------| 
    Take of me  all that you want 
 
 
 
       F#m                     F#m 
E|--------------2-------------------2---------------------| 
B|---------2-------2----------2---------2-----------------| 
G|-------2---2--------------2---2-------------------------| 
D|-----4------------------4-------------------------------| 
A|--------------------------------------------------------| 
E|--2-------------------2---------------------------------| 
  And if there's a thing that you need 
 
        Am7 
E|----------------4----4----5-----(4)---------------------| 
B|--------5-----------------------------------------------| 
G|------6---6---------------------------------------------| 
D|----7---------------------------------------------------| 
A|--0-------------0----0----0-----------------------------| 
E|--------------------------------------------------------| 
   I'd give you breath that I breathe 
 
      Bm                   E 
E|-------------2-------------------------0--------------------| 
B|----------3---------------------0---------------------------| 
G|-------4---------------------------1------------------------| 
D|-----4-----------------------2------------------------------| 
A|---2----------------------2---------------------------------| 
E|-----------------------0------------------------------------| 
 'N if ever you yearn for the love in me 
 
Coda: 
       Dm7        C#m        Bm         Am7 
E|-----------------------------2----------------4--4--5-(4)---| 
B|------5---------5--------3-----3----------5-----------------| 
G|----------------------------------------6--6----------------| 
D|--------------------------------------7---------------------| 
A|------5---------4--------2-----------0--------0--0--0-------| 
E|------------------------------------------------------------| 
    Whenever   Wherever  Whatever        baby 
 
Verse 2: 
 
          Am7                                  F#m 
E|---------------------------------*------------------------| 
B|--------5-------7---------5------*---------10------10-----| 
G|------6------6-------6-----------*-------9------9---------| 
D|----7----------------------------*----11------------------| 
A|-0-------------------------------*-9----------------------| 
E|---------------------------------*------------------------| 
   Wish I knew if I could          Be the one that you would 
 
 
    Bm                E 
E|------------*--------------------------------------------| 
B|----------3-*-------------7------------5---7---5---------| 
G|-------2----*----------9-----9-------6---6---6-----------| 
D|-----4------*-------9--------------7---------------------| 
A|--2---------*----7---------------0-----------------------| 
E|------------*--------------------------------------------| 
   love forever and a day baby 
 
 
 
       F#m                     F#m 
E|--------------2-------------------2---------------------| 
B|---------2-------2----------2---------2-----------------| 
G|-------2---2--------------2---2-------------------------| 
D|-----4------------------4-------------------------------| 
A|--------------------------------------------------------| 
E|--2-------------------2---------------------------------| 
  And if there's a thing that you need 
 
 
        Am7 
E|----------------4----4----5-----(4)---------------------| 
B|--------5-----------------------------------------------| 
G|------6---6---------------------------------------------| 
D|----7---------------------------------------------------| 
A|--0-------------0----0----0-----------------------------| 
E|--------------------------------------------------------| 
    For you 'n your blood I would bleed 
 
 
      Bm                   E 
E|-------------2-------------------------0--------------------| 
B|----------3---------------------0---------------------------| 
G|-------4---------------------------1------------------------| 
D|-----4-----------------------2------------------------------| 
A|---2----------------------2---------------------------------| 
E|-----------------------0------------------------------------| 
 'N if ever you yearn for the love in me 
 
 
       Dm7         C#m        Bm         Am7 
E|-----------------------------2----------------4--4--5-(4)---| 
B|------5---------5--------3-----3----------5-----------------| 
G|----------------------------------------6--6----------------| 
D|--------------------------------------7---------------------| 
A|------5---------4--------2-----------0--------0--0--0-------| 
E|------------------------------------------------------------| 
    Whenever Wherever Whatever      baby 

		  

Full key step upFull key step up
Half key step upHalf key step up
Half key step downHalf key step down
Full key step downFull key step down
auto scroll beats size up size down change color hide chords drawings
tab show chords e-chords YouTube Clip e-chords hide all tabs e-chords go to top tab

share