Max Romeo

I chase the devil

Max Romeo

tabs Beginner beginner

save to print version add songbook text version e-mail correct tuner
chordsukulelecavacokeyboardtabbassdrumsharmonicaflute Guitar Pro
close

there isn't a video lesson for this song

chords

I chase the devil

	  		Chorus :
|    Abm     Abm     Ebm     Ebm  |    Dbm     Dbm     Abm     Abm  |
|---------------------------------|---------------------------------|
|---------------------------------|---------------------------------|
|-------------4-6-6-------------6-|-4-4-4-4-4-----6-----------------|
|-4--4----4-7---------------------|-----------------4---4---4-------|


Verse : 
|    Dbm     Dbm     Dbm     Dbm  |    Ebm     Ebm     Ebm     Ebm  |
|---------------------------------|---------------------------------|
|-------------------3-6-----------|-------------------5-8-----------|
|-4-4-4-4-4-------4-----4-4-------|-6-6-6-6-6-------6-----6-6-------|
|---------------------------------|---------------------------------|
		  

Full key step upFull key step up
Half key step upHalf key step up
Half key step downHalf key step down
Full key step downFull key step down
hide glossary

See also:

tabs Tiken Jah Fakoly - Tonton d'America tabs Toots and the Maytals - Pressure Drop tabs Twinkle Brothers - Since I throw the comb away tabs Tryo - C'est du roots tabs Tryo - Les soldats de plomb tabs Israel Vibration - Rudeboy shufflin
e-chords

Other versions:

tabs Max Romeo - I chase the devil
auto scroll beats size up size down change color hide chords drawings
tab show chords e-chords YouTube Clip e-chords hide all tabs e-chords go to top tab

share