Matthew Mole

Run

Matthew Mole

tabs

by  VICTBORGES

save to print version add songbook text version e-mail correct tuner
chordsukulelecavacokeyboardtabbassdrumsharmonicaflute Guitar Pro
close

there isn't a video lesson for this song

chords

Run

	  		
Intro/Chorus 

  I'm gonna find     that this way   I'm    never   gonna  break   my 
e|---------------------------------------------------------------------------| 
B|--------------0-------0-------0-------0-------0-------0------0-------0-----| 
G|------------0-------0-------0-------0-------0-------0------0-------0-------| 
D|----------2-------2-------2-------2-------0-------0------0-------0---------| 
A|---------------------------------------------------------------------------| 
E|---------------------------------------------------------------------------| 

   never   gonna   break   my      bones            And    if you 
e|---------------------------------------------------------------------------| 
B|---------------------------------------------------------------------------| 
G|-----2-------2-------2-------2-------0-------0-------0-------0-------------| 
D|---4-------4-------4-------4-------2-------2-------2-------2---------------| 
A|-5-------5-------5-------5-------3-------3-------3-------3-----------------| 
E|---------------------------------------------------------------------------| 

   find   that this way    you're  never   gonna   be     are 
e|---------------------------------------------------------------------------| 
B|-----0-------0-------0-------0-------0-------0------0-------0--------------| 
G|-- 0-------0-------0-------0-------0-------0------0-------0----------------| 
D|-2-------2-------2-------2-------0-------0------0-------0------------------| 
A|---------------------------------------------------------------------------| 
E|---------------------------------------------------------------------------| 

   never   gonna   be       alone          alone           alone 
e|---------------------------------------------------------------------------| 
B|---------------------------------------------------------------------------| 
G|-----2-------2-------2-------2-------0-------0-------0-------0-------------| 
D|---4-------4-------4-------4-------2-------2-------2-------2---------------| 
A|-5-------5-------5-------5-------3-------3-------3-------3-----------------| 
E|---------------------------------------------------------------------------| 

           alone 
e|---------------------------------------------------------------------------| 
B|---------------------------------------------------------------------------| 
G|-----0-------0-------0-------0---------------------------------------------| 
D|---2-------2-------2-------2-----------------------------------------------| 
A|-3-------3-------3-------3-------------------------------------------------| 
E|---------------------------------------------------------------------------| 


verse 1 

you're gonna run     away    from    the     storm  you'll    be    a 
e|---------------------------------------------------------------------------| 
B|---------------0-------0-------0-------0-------0-------0------0-------0----| 
G|-------------0-------0-------0-------0-------0-------0------0-------0------| 
D|-----------2-------2-------2-------2-------0-------0------0-------0--------| 
A|---------------------------------------------------------------------------| 
E|---------------------------------------------------------------------------| 

   shame    for    ever  and   ever                 you   gotta 
e|---------------------------------------------------------------------------| 
B|---------------------------------------------------------------------------| 
G|-----2-------2-------2-------2-------0-------0-------0-------0-------------| 
D|---4-------4-------4-------4-------2-------2-------2-------2---------------| 
A|-5-------5-------5-------5-------3-------3-------3-------3-----------------| 
E|---------------------------------------------------------------------------| 

  come     and    lay  it all       down          cause you can 
e|---------------------------------------------------------------------------| 
B|-----0-------0-------0-------0-------0-------0------0-------0--------------| 
G|-- 0-------0-------0-------0-------0-------0------0-------0----------------| 
D|-2-------2-------2-------2-------0-------0------0-------0------------------| 
A|---------------------------------------------------------------------------| 
E|---------------------------------------------------------------------------| 

   face ................... weather (not sure about the lyrics) 
e|---------------------------------------------------------------------------| 
B|---------------------------------------------------------------------------| 
G|-----2-------2-------2-------2-------0-------0-------0-------0-------------| 
D|---4-------4-------4-------4-------2-------2-------2-------2---------------| 
A|-5-------5-------5-------5-------3-------3-------3-------3-----------------| 
E|---------------------------------------------------------------------------| 


Pre-Chorus 

and you will see     these   arms    are     open           and  are  gonna 
e|---------------------------------------------------------------------------| 
B|---------------------------------------------------------------------------| 
G|---------------2-------2-------0-------0-------0-------0-------0-------0---| 
D|-------------4-------4-------0-------0-------2-------2-------2-------2-----| 
A|-----------5-------5-------2-------2-------3-------3-------3-------3-------| 
E|---------------------------------------------------------------------------| 

   feel    this    love    it's    spoken   to     me      it's 
e|---------------------------------------------------------------------------| 
B|---------------------------------------------------------------------------| 
G|-----2-------2-------0-------0-------0-------0-------0-------0-------------| 
D|---4-------4-------0-------0-------2-------2-------2-------2---------------| 
A|-5-------5-------2-------2-------3-------3-------3-------3-----------------| 
E|---------------------------------------------------------------------------| 

   spoken   to     me 
e|---------------------------------------------------------------------------| 
B|---------------------------------------------------------------------------| 
G|-----0-------0-------0-------0---------------------------------------------| 
D|---2-------2-------2-------2-----------------------------------------------| 
A|-3-------3-------3-------3-------------------------------------------------| 
E|---------------------------------------------------------------------------| 


Chorus 

I'm gonna find    that  this way  I'm     never   gonna  break   my 
e|---------------------------------------------------------------------------| 
B|------------0-------0-------0-------0-------0-------0------0-------0-------| 
G|----------0-------0-------0-------0-------0-------0------0-------0---------| 
D|--------2-------2-------2-------2-------0-------0------0-------0-----------| 
A|---------------------------------------------------------------------------| 
E|---------------------------------------------------------------------------| 

   never   gonna   break   my      bones           and   if you 
e|---------------------------------------------------------------------------| 
B|---------------------------------------------------------------------------| 
G|-----2-------2-------2-------2-------0-------0-------0-------0-------------| 
D|---4-------4-------4-------4-------2-------2-------2-------2---------------| 
A|-5-------5-------5-------5-------3-------3-------3-------3-----------------| 
E|---------------------------------------------------------------------------| 

   find    that this way   you're   never  gonna  be      are 
e|---------------------------------------------------------------------------| 
B|-----0-------0-------0-------0-------0-------0------0-------0--------------| 
G|-- 0-------0-------0-------0-------0-------0------0-------0----------------| 
D|-2-------2-------2-------2-------0-------0------0-------0------------------| 
A|---------------------------------------------------------------------------| 
E|---------------------------------------------------------------------------| 

   never    gonna  be       alone 
e|---------------------------------------------------------------------------| 
B|---------------------------------------------------------------------------| 
G|-----2-------2-------2-------2-------0-------0-------0-------0-------------| 
D|---4-------4-------4-------4-------2-------2-------2-------2---------------| 
A|-5-------5-------5-------5-------3-------3-------3-------3-----------------| 
E|---------------------------------------------------------------------------| 


verse 2 

you think you've done a little too much           you need to 
e|---------------------------------------------------------------------------| 
B|-------------------------------------0-------0------0-------0--------------| 
G|-----------------------------------0-------0------0-------0----------------| 
D|---------------------------------0-------0------0-------0------------------| 
A|---------------------------------------------------------------------------| 
E|---------------------------------------------------------------------------| 

   see   the potential in  this    hearth         there'll never 
e|---------------------------------------------------------------------------| 
B|---------------------------------------------------------------------------| 
G|-----2-------2-------2-------2-------0-------0-------0-------0-------------| 
D|---4-------4-------4-------4-------2-------2-------2-------2---------------| 
A|-5-------5-------5-------5-------3-------3-------3-------3-----------------| 
E|---------------------------------------------------------------------------| 

   be        a   problem   so      though         you can always 
e|---------------------------------------------------------------------------| 
B|-----0-------0-------0-------0-------0-------0------0-------0--------------| 
G|-- 0-------0-------0-------0-------0-------0------0-------0----------------| 
D|-2-------2-------2-------2-------0-------0------0-------0------------------| 
A|---------------------------------------------------------------------------| 
E|---------------------------------------------------------------------------| 

   run      back    to    the       start 
e|---------------------------------------------------------------------------| 
B|---------------------------------------------------------------------------| 
G|-----2-------2-------2-------2-------0-------0-------0-------0-------------| 
D|---4-------4-------4-------4-------2-------2-------2-------2---------------| 
A|-5-------5-------5-------5-------3-------3-------3-------3-----------------| 
E|---------------------------------------------------------------------------| 


Pre-Chorus 

and you will see     these   arms    are     open        and you are gonna 
e|---------------------------------------------------------------------------| 
B|---------------------------------------------------------------------------| 
G|---------------2-------2-------0-------0-------0-------0-------0-------0---| 
D|-------------4-------4-------0-------0-------2-------2-------2-------2-----| 
A|-----------5-------5-------2-------2-------3-------3-------3-------3-------| 
E|---------------------------------------------------------------------------| 

   feel   this     love    it's      spoken    to me  and you will 
e|---------------------------------------------------------------------------| 
B|---------------------------------------------------------------------------| 
G|-----2-------2-------0-------0-------0-------0-------0-------0-------------| 
D|---4-------4-------0-------0-------2-------2-------2-------2---------------| 
A|-5-------5-------2-------2-------3-------3-------3-------3-----------------| 
E|---------------------------------------------------------------------------| 

   see      these  arms    are      open           and you are gonna 
e|---------------------------------------------------------------------------| 
B|---------------------------------------------------------------------------| 
G|-----2-------2-------0-------0-------0-------0-------0-------0-------------| 
D|---4-------4-------0-------0-------2-------2-------2-------2---------------| 
A|-5-------5-------2-------2-------3-------3-------3-------3-----------------| 
E|---------------------------------------------------------------------------| 

   feel    this     love    it's    spoken  to me 
e|---------------------------------------------------------------------------| 
B|---------------------------------------------------------------------------| 
G|-----2-------2-------0-------0-------0-------0-------0-------0-------------| 
D|---4-------4-------0-------0-------2-------2-------2-------2---------------| 
A|-5-------5-------2-------2-------3-------3-------3-------3-----------------| 
E|---------------------------------------------------------------------------| 


Chorus 

I'm gonna find    that this way  I'm      never   gonna  break     my 
e|---------------------------------------------------------------------------| 
B|------------0-------0-------0-------0-------0-------0------0-------0-------| 
G|----------0-------0-------0-------0-------0-------0------0-------0---------| 
D|--------2-------2-------2-------2-------0-------0------0-------0-----------| 
A|---------------------------------------------------------------------------| 
E|---------------------------------------------------------------------------| 

   never   gonna   break   my      bones            and if you 
e|---------------------------------------------------------------------------| 
B|---------------------------------------------------------------------------| 
G|-----2-------2-------2-------2-------0-------0-------0-------0-------------| 
D|---4-------4-------4-------4-------2-------2-------2-------2---------------| 
A|-5-------5-------5-------5-------3-------3-------3-------3-----------------| 
E|---------------------------------------------------------------------------| 

   find    that  this way   you're never   gonna  be      you're 
e|---------------------------------------------------------------------------| 
B|-----0-------0-------0-------0-------0-------0------0-------0--------------| 
G|-- 0-------0-------0-------0-------0-------0------0-------0----------------| 
D|-2-------2-------2-------2-------0-------0------0-------0------------------| 
A|---------------------------------------------------------------------------| 
E|---------------------------------------------------------------------------| 

   never   gonna     be        alone 
e|-------------------------------------------------------------x------x------| 
B|-------------------------------------------------------------x------x------| 
G|-----2-------2-------2-------2-------0-------0-------0-------x------x------| 
D|---4-------4-------4-------4-------2-------2-------2---------x------x------| 
A|-5-------5-------5-------5-------3-------3-------3-------3---x------x------| 
E|-------------------------------------------------------------x------x------| 


Instrumental 

e|---------------------------------------------------------------------------| 
B|-----0-------0-------0-------0-------0-------0------0-------0--------------| 
G|-- 0-------0-------0-------0-------0-------0------0-------0----------------| 
D|-2-------2-------2-------2-------0-------0------0-------0------------------| 
A|---------------------------------------------------------------------------| 
E|---------------------------------------------------------------------------| 

e|---------------------------------------------------------------------------| 
B|---------------------------------------------------------------------------| 
G|-----2-------2-------2-------2-------0-------0-------0-------0-------------| 
D|---4-------4-------4-------4-------2-------2-------2-------2---------------| 
A|-5-------5-------5-------5-------3-------3-------3-------3-----------------| 
E|---------------------------------------------------------------------------| 

e|---------------------------------------------------------------------------| 
B|-----0-------0-------0-------0-------0-------0------0-------0--------------| 
G|-- 0-------0-------0-------0-------0-------0------0-------0----------------| 
D|-2-------2-------2-------2-------0-------0------0-------0------------------| 
A|---------------------------------------------------------------------------| 
E|---------------------------------------------------------------------------| 

e|---------------------------------------------------------------------------| 
B|---------------------------------------------------------------------------| 
G|-----2-------2-------2-------2-------0-------0-------0-------0-------------| 
D|---4-------4-------4-------4-------2-------2-------2-------2---------------| 
A|-5-------5-------5-------5-------3-------3-------3-------3-----------------| 
E|---------------------------------------------------------------------------| 


Bridge 

   Be        mine          never    think    twice  you'll never 
e|---------------------------------------------------------------------------| 
B|-----0-------0-------0-------0-------0-------0------0-------0--------------| 
G|-- 0-------0-------0-------0-------0-------0------0-------0----------------| 
D|-2-------2-------2-------2-------0-------0------0-------0------------------| 
A|---------------------------------------------------------------------------| 
E|---------------------------------------------------------------------------| 

   be       alone                                           So 
e|---------------------------------------------------------------------------| 
B|---------------------------------------------------------------------------| 
G|-----2-------2-------2-------2-------0-------0-------0-------0-------------| 
D|---4-------4-------4-------4-------2-------2-------2-------2---------------| 
A|-5-------5-------5-------5-------3-------3-------3-------3-----------------| 
E|---------------------------------------------------------------------------| 

   be      mine         never       think   twice  you'll never 
e|---------------------------------------------------------------------------| 
B|-----0-------0-------0-------0-------0-------0------0-------0--------------| 
G|-- 0-------0-------0-------0-------0-------0------0-------0----------------| 
D|-2-------2-------2-------2-------0-------0------0-------0------------------| 
A|---------------------------------------------------------------------------| 
E|---------------------------------------------------------------------------| 

   be       alone                                   alone 
e|---------------------------------------------------------------------------| 
B|---------------------------------------------------------------------------| 
G|-----2-------2-------2-------2-------0-------0-------0-------0-------------| 
D|---4-------4-------4-------4-------2-------2-------2-------2---------------| 
A|-5-------5-------5-------5-------3-------3-------3-------3-----------------| 
E|---------------------------------------------------------------------------| 

   alone            alone           alone           alone 
e|---------------------------------------------------------------------------| 
B|---------------------------------------------------------------------------| 
G|-----0-------0-------0-------0-------0-------0-------0-------0-------------| 
D|---2-------2-------2-------2-------2-------2-------2-------2---------------| 
A|-3-------3-------3-------3-------3-------3-------3-------3-----------------| 
E|---------------------------------------------------------------------------| 

   alone      alone 
e|---------------------x-------x---------------------------------------------| 
B|---------------------x-------x---------------------------------------------| 
G|-----0-------0-------x-------x---------------------------------------------| 
D|---2-------2---------x-------x---------------------------------------------| 
A|-3-------3-------3---x-------x---------------------------------------------| 
E|---------------------x-------x---------------------------------------------| 


Chorus 

I'm gonna find    that this way   I'm     never   gonna  break   my 
e|---------------------------------------------------------------------------| 
B|------------0-------0-------0-------0-------0-------0------0-------0-------| 
G|----------0-------0-------0-------0-------0-------0------0-------0---------| 
D|--------2-------2-------2-------2-------0-------0------0-------0-----------| 
A|---------------------------------------------------------------------------| 
E|---------------------------------------------------------------------------| 

   never   gonna    break  my      bones             and if  you 
e|---------------------------------------------------------------------------| 
B|---------------------------------------------------------------------------| 
G|-----2-------2-------2-------2-------0-------0-------0-------0-------------| 
D|---4-------4-------4-------4-------2-------2-------2-------2---------------| 
A|-5-------5-------5-------5-------3-------3-------3-------3-----------------| 
E|---------------------------------------------------------------------------| 

   find    that this way  you're   never   gonna    be     are 
e|---------------------------------------------------------------------------| 
B|-----0-------0-------0-------0-------0-------0------0-------0--------------| 
G|-- 0-------0-------0-------0-------0-------0------0-------0----------------| 
D|-2-------2-------2-------2-------0-------0------0-------0------------------| 
A|---------------------------------------------------------------------------| 
E|---------------------------------------------------------------------------| 

  never    gonna    be      alone 
e|---------------------------------------------------------------------------| 
B|---------------------------------------------------------------------------| 
G|-----2-------2-------2-------2-------0-------0-------0-------0-------------| 
D|---4-------4-------4-------4-------2-------2-------2-------2---------------| 
A|-5-------5-------5-------5-------3-------3-------3-------3-----------------| 
E|---------------------------------------------------------------------------| 


Outro 

And if you find    that this way   you're  never   gonna   be     are 
e|-------------------------------------------------------------------------------------| 
B|-------------0-------0-------0-------0-------0-------0------0-------0----------------| 
G|-----------0-------0-------0-------0-------0-------0------0-------0------------------| 
D|---------2-------2-------2-------2-------1-------1------1-------1--------------------| 
A|-------------------------------------------------------------------------------------| 
E|-------------------------------------------------------------------------------------| 

   never   gonna   be       are    never   gonna   be      alone 
e|---------------------------------------------------------------------------| 
B|-----0-------0-------0-------0---------------------------------------------| 
G|-- 0-------0-------0-------0---------2-------2-------2-------2-------------| 
D|-0-------0-------0-------0---------4-------4-------4-------4---------------| 
A|---------------------------------5-------5-------5-------5-------3---------| 
E|---------------------------------------------------------------------------| 
 
		  

See also:

tabs Deep Purple - Deep Purple - Smoke On The Water tabs Ira! - Vitrine Viva tabs Ira! - Eu Quero Sempre Mais (Com Pitty, intro) tabs Deep Purple - Smoke On The Water (Easy Intro) tabs Deep Purple - Money Talks tabs Deep Purple - Mistreated
e-chords

Other versions:

tabs Collective Soul - Run tabs Hillsong - Run tabs Taylor Swift - Run tabs Hozier - Run tabs San Cisco - Run tabs Matthew Mole - Run
auto scroll beats size up size down change color hide chords drawings
tab show chords e-chords YouTube Clip e-chords hide all tabs e-chords go to top tab

share