Matt Wertz

5:19

Matt Wertz

tabs Expert expert

by  ANAJULIA_

save to print version add songbook text version e-mail correct tuner
chordsukulelecavacokeyboardtabbassdrumsharmonicaflute Guitar Pro
close

there isn't a video lesson for this song

chords

5:19

	  		{Intro/Verse} 


       I'd be lyin through my teeth.... that week came.... 

      C#m7      B       A       E      C#m7      B     A 
e|--------x--x--x--x------x--x--x---|------x--x--x--x--x--| 
B|--------5--x--4--x------2--x--0---|------5--x--4--x--2--| 
G|--------4--x--4--x------2--x--1---|------4--x--4--x--2--| 
D|-----2--2--x--4--x---2--2--x--2---|---2--2--x--4--x--2--| 
A|----4-4----x--2--x--0-0----x--2---|--4-4----x--2--x--0--| 
E|-----------x--x--x---------x--0---|---------x--x--x--x--| 





{Pre Chorus} 
  til you said you need some space...    truth be told.... 
       F#m      A                         F#m          B 
e|----2---2---x--x------------------|----2---2-------x---x---| 
B|----2---2---2--2------------------|----2---2-------4---4---| 
G|----2---2---2--2------------------|----2---2-------4---4---| 
D|----4---4---2--2------------------|----4---4-------4---4---| 
A|----4---4---0--0------------------|----4---4-------2---2---| 
E|----2---2---x--x------------------|----2---2-------x---x---| 




{Chorus} 
      E*               G#m            A              F#m 
e|----x--x--x---x----4--x--4---x----5--x--5---x----2--x--2--| 
B|----9--x--9---x----4--x--4---x----5--x--5---x----2--x--2--| 
G|----9--x--9---x----4--x--4---x----6--x--6---x----2--x--2--| 
D|----9--x--9---x----6--x--6---x----7--x--7---x----4--x--4--| 
A|----7--x--7---x----6--x--6---x----7--x--7---x----4--x--4--| 
E|----x--x--x---x----4--x--4---x----5--x--5---x----2--x--2--| 


  (2nd time through) 
      E*               G#m             A           Am  
e|----x--x--x---x----4--x--4---x----5--x--5---x----5--------| 
B|----9--x--9---x----4--x--4---x----5--x--5---x----5--------| 
G|----9--x--9---x----4--x--4---x----6--x--6---x----5--------| 
D|----9--x--9---x----6--x--6---x----7--x--7---x----7--------| 
A|----7--x--7---x----6--x--6---x----7--x--7---x----7--------| 
E|----x--x--x---x----4--x--4---x----5--x--5---x----5--------| 



{Bridge} 

   Baby take all ..... I'll be here... 
   F#7su  E6su4   E 
e|----0--x--0--x--0---| 
B|----7--x--5--x--0---|    1st part 
G|----8--x--6--x--1---| 
D|----9--x--7--x--2---| 
A|----9--x--7--x--2---| 
E|----x--x--x--x--0---| 


     F#m     A   Am  
e|----2------5---5----| 
B|----2------5---5----|    2nd part 
G|----2------6---5----| 
D|----4------7---7----| 
A|----4------7---7----| 
E|----2------5---5----| 



		  

auto scroll beats size up size down change color hide chords drawings
tab show chords e-chords YouTube Clip e-chords hide all tabs e-chords go to top tab

share