Matt and Kim

Daylight (tab)

Matt and Kim

tabs Easy easy

by  09WHATEVER06

save to print version add songbook text version e-mail correct tuner
chordsukulelecavacokeyboardtabbassdrumsharmonicaflute Guitar Pro
close

there isn't a video lesson for this song

chords

Daylight (tab)

	  		E||-------------------------------------| 
B||-------------------------------------| 
G||-6-------6---------6-6---------------| 
D||----7-9-----9--7---------------------| 
A||-------------------------------------| 
E||-------------------------------------| 


E||-------------------------------------| 
B||-------------------------------------| 
G||-6-------6---------9-6---------------| 
D||----7-9-----9--7---------------------| 
A||-------------------------------------| 
E||-------------------------------------| 


E||-------------------------------------| 
B||-------------------------------------| 
G||-6-------6---------------------------| 
D||----7-9-----9--7---9-9---------------| 
A||-------------------------------------| 
E||-------------------------------------| 


E||-------------------------------------| 
B||-------------------------------------| 
G||-6-------6---------------------------| 
D||----7-9-----9--7---9-7---------------| 
A||-------------------------------------| 
E||-------------------------------------| 


chours 

    D     A     F#     E 

E||-2-----------------------| 
B||-3-----2-----------------| 
G||-2-----2-----3------1----| 
D||-------2-----4------2----| 
A||-------------4------2----| 
E||-------------2-----------| 
		  

Full key step upFull key step up
Half key step upHalf key step up
Half key step downHalf key step down
Full key step downFull key step down
hide glossary

See also:

tabs Yellowcard - Way Away tabs Kelly Clarkson - Since u been gone tabs Cyndi Lauper - Time After Time tabs Michael Jackson - Billie Jean (Fingerstyle) tabs Jason Mraz - The Remedy tabs Black Eyed Peas - My humps
e-chords

Other versions:

tabs Boyce Avenue - Daylight tabs Matt and Kim - Daylight (tab)
auto scroll beats size up size down change color hide chords drawings
tab show chords e-chords YouTube Clip e-chords hide all tabs e-chords go to top tab

share with facebook