Mathieu Chedid

Mojo

Mathieu Chedid

tabs Easy easy

by  JOAOEWERTON

save to print version add songbook text version e-mail correct tuner
chordsukulelecavacokeyboardtabbassdrumsharmonicaflute Guitar Pro
close

there isn't a video lesson for this song

chords

Mojo

	  		


Intro : 

e|-----------------------------------------| 
A|--4-------7-------7-------2--------------| 
D|--4-------7-------7-------2--------------| 
G|--4-------7-------7-------2--------------| 
B|--2-------5-------5-------0--------------| 
E|-----------------------------------------| 

Couplet/Verse : 

e|-----------------------------------------| 
A|--4-4-x-x-7-7-x-x-7-7-x-2-x--------------| 
D|--4-4-x-x-7-7-x-x-7-7-x-2-x--------------| 
G|--4-4-x-x-7-7-x-x-7-7-x-2-x--------------| 
B|--2-2-x-x-5-5-x-x-5-5-x-0-x-----0--------| 
E|----------------------------0-2----------| 

Pont/Bridge : 

e|--------------------------------------------------| 
A|--------------------------------------------------| 
D|--------------------------------------------------| 
G|---0-2-2b3-3-0-------0-2-0h2----------------------| 
B|-2-------------2-0-2---------2-0h2p0h2p0h2p0h2----| 
E|--------------------------------------------------| 

e|--------------------------------------------------| 
A|--------------------------------------------------| 
D|----------2---------------------------------------| 
G|---0-2-2b3-3-0---0---0-2-0h2p0h2p0h2p0------------| 
B|-2-------------2---2------------------------------| 
E|--------------------------------------------------| 

Refrain/chorus : 

e|---------------------------------------| 
A|--4--------7---------2-----------------| 
D|--4--------7---------2-----------------| 
G|--4--(x8)--7--(x16)--2--(x5)-----------| 
B|--2--------5---------0-----------2-0---| 
E|-------------------------------0-------| 

Pont/Bridge 2 : 

e|------------------------------------| 
A|------------------------------------| 
D|------------------------------------| 
G|------------------------------------| 
B|-12221h22-1h2-22-1h22---------------| 
E|------------------------------------| 

Solo : 

e|-14b16-16--11-14b16--------------------------------------------------------| 
B|---------------------14b15~-14b14b14b14b14b14b14b14------------------11----| 
G|---------------------------------------------------13b14-11h13-11h13----11-| 
D|---------------------------------------------------------------------------| 
A|---------------------------------------------------------------------------| 
E|---------------------------------------------------------------------------| 



 
		  

See also:

tabs Louis-jean Cormier - Jouer Des Tours tabs Plastiscines - Mister Driver tabs Mathieu Chedid - Elle tabs Plastiscines - Bitch tabs Wistfull - I Don't Like Bitch tabs Mano Negra - Mano Negra
e-chords

Other versions:

tabs Mathieu Chedid - Mojo tabs Jeff Buckley - Mojo Pin tabs Jeff Buckley - Mojo Pin (ver. 2)
auto scroll beats size up size down change color hide chords drawings
tab show chords e-chords YouTube Clip e-chords hide all tabs e-chords go to top tab

share