Mateus Asato

Maybe

Mateus Asato

tabs nolevel nolevel

by  EDUCASTILHO

save to print version add songbook text version e-mail correct tuner
chordsukulelecavacokeyboardtabbassdrumsharmonicaflute Guitar Pro
close

there isn't a video lesson for this song

chords

Maybe

	  		
Tuning: Full-step down DGCFAd 

Verse 

d|------------------0--------------|---------------------------------| 
A|----------------------4----------|------------------------------0--| 
F|----------4-h-6-----------4-h-6--|--6-/-8-\-6-\-4------------------| 
C|---------------------------------|------------------x---6-p-4------| 
G|---------------------------------|--0---------------x--------------| 
D|---------------------------------|------------------x--------------| 

d|---------------------------------|---------------------------------| 
A|------2-----------------------0--|--------------0---------------0--| 
F|--------------3------------------|------3---------------3----------| 
C|----------------------4----------|----------4---------------4------| 
G|---------------------------------|---------------------------------| 
D|--2-------2-------2-------2------|--4---------------2--------------| 

d|---------------------------------|---------------------------------| 
A|---------------------------------|------------------------------0--| 
F|------------------4---6---7\6-4--|--------------3------------------| 
C|--6--/7\6-4-h-6------------------|----------------------4----------| 
G|---------------------------------|---------------------------------| 
D|--0------------------------------|--6\4-2-----------2-------2------| 

d|---------------------------------|---------------------------------| 
A|------0--------------------------|---------------------------------| 
F|----------------------3----------|---------------------------------| 
C|--------------1---------------1--|--6--/7\6-4-h-6------------------| 
G|---------------------------------|-----------------(6)\4-2---------| 
D|--4-------4-------2-------2------|--0-----------------------4---2--| 

d|--------------------------2------|---------------------------------| 
A|--------------0-----------0------|----------------------4p2--------| 
F|------------------x-------3------|------------------x-------4------| 
C|--2---------------x--------------|------------------x-----------4--| 
G|--4---------------x--------------|------------------x--------------| 
D|--4---------------x-------2------|------------------x--------------| 

d|---------------------------------|---------------------------------| 
A|---------------------------------|--------------0------------------| 
F|--------------4---------------6--|---------------------------------| 
C|--4-h-6---------------6----------|------4---------------4----------| 
G|---------------------------------|--6------------------------------| 
D|--0-------0-------0-------0------|----------6-------6--------------| 

d|--------------------------0------|------------------0--------------| 
A|--------------0-----------0------|----------------------0----------| 
F|--6---------------x-------2------|--------------------------2------| 
C|--4---------------x-------2------|---------------------------------| 
G|--5---------------x-------4------|----------4----------------------| 
D|--5---------------x------(0)-----|---------------------------------| 

d|----------2h4-----2--------------|--0-----------0---------------0--| 
A|----------2-------2-------2-h-4--|------4---------------4----------| 
F|----------2-------2--------------|----------4---------------4------| 
C|----------2-------2--------------|---------------------------------| 
G|--0-------0-------0--------------|--4---------------2--------------| 
D|---------------------------------|---------------------------------| 

d|--------------0---------------0--|--------------0------------------| 
A|------4---------------3----------|------3--------------------------| 
F|----------4---------------4------|----------4-------------------1-h| 
C|---------------------------------|--------------------------2------| 
G|---------------------------------|--0-------------------2----------| 
D|--4---------------3--------------|------------------0--------------| 

d|--------------0-------0-------0--|---------------------(12)--------| 
A|---------------------------------|------0--------------(12)--------| 
F|--2---3---4-------4-------3------|--2------------------------------| 
C|------3---4-------3-------2------|--2------------------------------| 
G|---------------------------------|---------------------------------| 
D|------3---4-------3-------2------|--2---------------0--------------| 

d|---------------------------------|-----------9---------------8-----| 
A|----------------------5-h-7-/-9--|-(9)-/-11-----11-(8)-/-10-----10-| 
F|---------------------------------|---------------------------------| 
C|----------------------6-h-7-/-9--|-(9)-/-11--------(8)-/-10--------| 
G|---------------------------------|---------------------------------| 
D|------------------0--------------|--0---------------0--------------| 

d|---------------------------------|------------------0-------0------| 
A|--9--\-7----5---5/7--------------|----------------------7----------| 
F|---------------------------------|----------6-h-8---------------8--| 
C|--9--\-7----6---6/8--------------|---------------------------------| 
G|---------------------------------|---------------------------------| 
D|--0------------------------------|---------------------------------| 

d|----------------------0----------|------0-------------------0------| 
A|---------------------------------|---------------------------------| 
F|--8-/-9-\-8-\-6-----------6-/-4--|----------4-----\-1-h-2----------| 
C|---------------------------------|---------------------------------| 
G|--0------------------------------|---------------------------------| 
D|---------------------------------|------------------2--------------| 

d|------------------0--------------|---------------------------------| 
A|----------------------4----------|------------------------------0--| 
F|----------4-h-6-----------4-h-6--|--6-/-8-\-6-\-4------------------| 
C|---------------------------------|------------------x---6-p-4------| 
G|---------------------------------|--0---------------x--------------| 
D|---------------------------------|------------------x--------------| 

d|---------------------------------|---------------------------------| 
A|------2-----------------------0--|--------------0---------------0--| 
F|--------------3------------------|------3---------------3----------| 
C|----------------------4----------|----------4---------------4------| 
G|---------------------------------|---------------------------------| 
D|--2-------2-------2-------2------|--4---------------2--------------| 

d|---------------------------------|---------------------------------| 
A|---------------------------------|------------------------------0--| 
F|------------------4---6---7\6-4--|--------------3------------------| 
C|--6--/7\6-4-h-6------------------|----------------------4----------| 
G|---------------------------------|---------------------------------| 
D|--0------------------------------|--6\4-2-----------2-------2------| 

d|---------------------------------|---------------------------------| 
A|---------------------------------|---------------------------------| 
F|----------4---/-----------6---\--|----------3---/-----------4\3-1--| 
C|------1-------/-------4-------\--|------1---------------1----------| 
G|---------------------------------|---------------------------------| 
D|--4-----------/---6-----------\--|--3-----------p---2--------------| 

d|------2-----------2--------------|---------------------------------| 
A|----------0-------0--------------|--0------------------------------| 
F|--------------1---1--------------|--3------------------------------| 
C|---------------------------------|--4------------------------------| 
G|---------------------------------|--4------------------------------| 
D|--0---------------2--------------|--2------------------------------| 


*********************************** 

| h      Hammer-On 
| p      Pull-Off 
| /      Slide Up 
| \      Slide Down 
| (n)    Harmonic 
| x      Dead Note 

*********************************** 
		  

See also:

tabs Deep Purple - Sometimes a Feel Like Screaming tabs Deep Purple - Mistreated tabs Deep Purple - Smoke on the Water (ver. 2) tabs Ira! - Vitrine Viva tabs Doa - Sexyest Girl tabs Deep Purple - Ted The Mechanic
e-chords

Other versions:

tabs Lily Kershaw - Maybe tabs Jim Black - Maybe tabs Mateus Asato - Maybe tabs The Get Up Kids - Maybe tabs Secondhand Serenade - Maybe (intro) tabs Zombies - Maybe After He's Gone
auto scroll beats size up size down change color hide chords drawings
tab show chords e-chords YouTube Clip e-chords hide all tabs e-chords go to top tab

share with facebook