Matchbook Romance

Surrender

Matchbook Romance

tabs

by  HELENA_2892

save to print version add songbook text version e-mail correct tuner
chordsukulelecavacokeyboardtabbassdrumsharmonicaflute Guitar Pro
close

there isn't a video lesson for this song

chords

Surrender

	  		intro: 
Eb-----------8-----------8-----------8----------8--| 
Bb--10----10----10----10----10----10---10----10----| 
Gb-----9-----------9-----------9----------9--------| 
Db-------------------------------------------------| 
Ab-------------------------------------------------| 
Eb-------------------------------------------------| 

Eb-----------7-----------7-----------7-----------7-| 
Bb--9-----9-----9-----9-----9-----9-----9-----9----| 
Gb-----9-----------9-----------9-----------9-------| 
Db-------------------------------------------------| x2 
Ab-------------------------------------------------| 
Eb-------------------------------------------------| 


verse: 
Eb-------------------------------------------------| 
Bb-------------------------------------------------| 
Gb-------------------------------------------------| 
Db--7-----------------------2----------------------| 
Ab--7-x16-------------------2-x16------------------| 
Eb--5-----------------------0----------------------| 

Eb-------------------------------------------------| 
Bb-------------------------------------------------| 
Gb--7----------------------------------------------| 
Db--7-X16-------------------2----------------------| x2 
Ab--5-----------------------2-x16------------------| 
Eb--------------------------0----------------------| 

Pre-Chorus: 
Eb-----------------------------| 
Bb-----------------------------| 
Gb-----------------------------| 
Db-----------------------------| x4 
Ab-----------------------------| 
Eb--5---5--7--8----4---4--5--7-| 

Chorus: 
Eb-------------------------------------------| 
Bb-------------------------------------------| 
Gb--7----------------------5----------9------| 
Db--7-x16-------5----------5-x16------9-x16--| 
Ab--5-----------5-x16------3----------7------| 
Eb--------------3----------------------------| 

Eb-------------------------------------------| 
Bb-------------------------------------------| 
Gb--7----------------------------------------| 
Db--7-x16-------5----------5-----------------| 
Ab--5-----------5-x8-------5-x8--------------| 
Eb--------------3----------4-----------------| 

Bridge: 
Eb---------------------------------------------------------| 
Bb--17-17-17-17-17-17-17-17/18-17-17-17-17-17-17-17-17/18--| 
Gb---------------------------------------------------------| 
Db---------------------------------------------------------| 
Ab---------------------------------------------------------| 
Eb---------------------------------------------------------| 

Eb---------------------------------------------------------| 
Bb--17-17-17-17-17-17-15-13-12-12-12/13-12-12-12-12/13-12--| 
Gb---------------------------------------------------------| 
Db---------------------------------------------------------| 
Ab---------------------------------------------------------| 
Eb---------------------------------------------------------| 

verse: 
Eb-------------------------------------------------| 
Bb-------------------------------------------------| 
Gb-------------------------------------------------| 
Db--7-----------------------2----------------------| 
Ab--7-x16-------------------2-x16------------------| 
Eb--5-----------------------0----------------------| 

Eb-------------------------------------------------| 
Bb-------------------------------------------------| 
Gb--7----------------------------------------------| 
Db--7-X16-------------------2----------------------| x2 
Ab--5-----------------------2-x16------------------| 
Eb--------------------------0----------------------| 

Pre-Chorus: 
Eb-------------------------------------------| 
Bb-------------------------------------------| 
Gb-------------------------------------------| 
Db--7-x-7-x-7-x-7-x-7-x-7---7----------------| 
Ab--7-x-7-x-7-x-7-x-7-x-7---7----------------| 
Eb--5-x-5-x-5-x-5-x-5-x-5---5----------------| 
                           *Tremelo Pick* 


Chorus: 
Eb-------------------------------------------| 
Bb-------------------------------------------| 
Gb--7----------------------5----------9------| 
Db--7-x16-------5----------5-x16------9-x16--| 
Ab--5-----------5-x16------3----------7------| 
Eb--------------3----------------------------| 

Eb-------------------------------------------| 
Bb-------------------------------------------| 
Gb--7----------------------5----------9------| 
Db--7-x16-------5----------5-x16------9-x16--| 
Ab--5-----------5-x16------3----------7------| 
Eb--------------3----------------------------| 

Eb-------------------------------------------| 
Bb-------------------------------------------| 
Gb--7----------------------------------------| 
Db--7-x16-------5----------5-----------------| 
Ab--5-----------5-x8-------5-x8--------------| 
Eb--------------3----------4-----------------| 

Breakdown: 
Eb-----------------------------------------------------------------------| 
Bb-----------------------------------------------------------------------| 
Gb--14---14-14-14-14-13---13-13-13-13-12---12-12-12-12-11---11-11-11-11--| 
Db-----------------------------------------------------------------------| 
Ab--12---12-12-12-12-11---11-11-11-11-10---10-10-10-10-9----9--9--9--9---| 
Eb-----------------------------------------------------------------------| 

Eb-----------------------------------------------------------------------| 
Bb-----------------------------------------------------------------------| 
Gb--10---10-10-10-10-10---10-10-10-10-10---10-10-10-10-9----9--9--9--9---| 
Db-----------------------------------------------------------------------| x3 
Ab--8----8--8--8--8--8----8--8--8--8--8----8--8--8--8--7----7--7--7--7---| 
Eb-----------------------------------------------------------------------| 

Eb-----------------------------------------------------------------------| 
Bb-----------------------------------------------------------------------| 
Gb--10---10-10-10-10-10---10-10-10-10-10---10-10-10-10-9----9--9--9--9---| 
Db-----------------------------------------------------------------------| 
Ab--8----8--8--8--8--8----8--8--8--8--8----8--8--8--8--7----7--7--7--7---| 
Eb-----------------------------------------------------------------------| 

Eb-----------------------------------------------------------------------| 
Bb-----------------------------------------------------------------------| 
Gb--10---10-10-10-10-10---10-10-10-10-10---10-10-10-10-9----9--9--9--9---| 
Db-----------------------------------------------------------------------| 
Ab--8----8--8--8--8--8----8--8--8--8--8----8--8--8--8--7----7--7--7--7---| 
Eb-----------------------------------------------------------------------| 

Eb-------| 
Bb-------| 
Gb--14---| 
Db-------| 
Ab--12---| 
Eb-------| 

Eb-----------------------------| 
Bb-----------------------------| 
Gb-----------------------------| 
Db-----------------------------| x12 
Ab-----------------------------| 
Eb--5---5--7--8----4---4--5--7-| 

Chorus: 
Eb-------------------------------------------| 
Bb-------------------------------------------| 
Gb--7----------------------5----------9------| 
Db--7-----------5----------5-x16------9-x16--| 
Ab--5-----------5-x16------3----------7------| 
Eb--------------3----------------------------| 

Eb-------------------------------------------| 
Bb-------------------------------------------| 
Gb--7----------------------5----------9------| 
Db--7-x16-------5----------5-x16------9-x16--| 
Ab--5-----------5-x16------3----------7------| 
Eb--------------3----------------------------| 

Eb-------------------------------------------| 
Bb-------------------------------------------| 
Gb--7----------------------5----------9------| 
Db--7-x16-------5----------5-x16------9-x16--| 
Ab--5-----------5-x16------3----------7------| 
Eb--------------3----------------------------| 

Eb-------------------------------------------| 
Bb-------------------------------------------| 
Gb--7----------------------5----------9------| 
Db--7-x16-------5----------5-x16------9-x16--| 
Ab--5-----------5-x16------3----------7------| 
Eb--------------3----------------------------| 

Bridge: 
Eb----------------------------------------------------------------------| 
Bb----------------------------------------------------------------------| 
Gb--------------------------------------------7-------10--------13------| 
Db--7-----------6----------5----------4-------7-x8----10-x16----13-x16--| 
Ab--7-x16-------6-x16------5-x16------4-x8----5-------8---------11------| 
Eb--5-----------4----------3----------2---------------------------------| 

Eb----------------------------------------------------------------------------| 
Bb----------------------------------------------------------------------------| 
Gb--------------------------------------------7-------10----11----12----13----| 
Db--7-----------6----------5----------4-------7-x8----10-x8-11-x8-12x4--13----|x4 
Ab--7-x16-------6-x16------5-x16------4-x8----5-------8-----9-----10----11----| 
Eb--5-----------4----------3----------2---------------------------------------| 

Eb----------------------------------------------------| 
Bb----------------------------------------------------| 
Gb----------------------------------------------------| 
Db--7-----------9----------10---------12---------15---| 
Ab--7-x16-------9-x-16-----10-x16-----12-x16-----15---| 
Eb--5-----------7----------8----------10---------13---| 


		  

auto scroll beats size up size down change color hide chords drawings
tab show chords e-chords YouTube Clip e-chords hide all tabs e-chords go to top tab

share