Matchbook Romance

Fiction

Matchbook Romance

tabs

by  HELENA_2892

save to print version add songbook text version e-mail correct tuner
chordsukulelecavacokeyboardtabbassdrumsharmonicaflute Guitar Pro
close

there isn't a video lesson for this song

chords

Fiction

	  		tuning: 1/2 step down (Eb - Ab - Db - Gb - Bb - Eb) 


verse: 
Eb-----------------------------| 
Bb-----------------------------| 
Gb-6-------------6-------------| 
Db-6-x32--6------6-x32--6------| 
Ab-4------6-x32--4------6-x32--| 
Eb--------4-------------4------| 

bridge: 
Eb----------------------| 
Bb----------------------| 
Gb---------------6------| 
Db-7------4------6-x32--| 
Ab-7-x16--4-x16--4------| 
Eb-5------2-------------| 

Eb----------------------| 
Bb----------------------| 
Gb----------------------| 
Db-7------4------6------| 
Ab-7-x16--4-x16--6-x32--| 
Eb-5------2------4------| 

Eb----------------------------------| 
Bb----------------------------------| 
Gb-6------2-------------9-----5-----| 
Db-6-x16--2-x16--4------9-x8--5-x8--| x2 
Ab-4------0------4-x16--7-----3-----| 
Eb---------------2------------------| 

second verse has no guitar 

bridge: 
Eb----------------------| 
Bb----------------------| 
Gb---------------6------| 
Db-7------4------6-x32--| 
Ab-7-x16--4-x16--4------| 
Eb-5------2-------------| 

Eb----------------------| 
Bb----------------------| 
Gb----------------------| 
Db-7------4------6------| 
Ab-7-x16--4-x16--6-x32--| 
Eb-5------2------4------| 

Eb----------------------------------| 
Bb----------------------------------| 
Gb-6------2-------------9-----5-----| 
Db-6-x16--2-x16--4------9-x8--5-x8--| x2 
Ab-4------0------4-x16--7-----3-----| 
Eb---------------2------------------| 

bridge: 
Eb-------| 
Bb-------| 
Gb-------| 
Db-6-x64-| 
Ab-4-----| 
Eb-------| 

Eb----------------| 
Bb----------------| 
Gb----------------| 
Db----------------| x12 
Ab-4---4-6---7----| 
Eb---------4---4--| 

Eb-------------------------------| 
Bb-------------------------------| 
Gb-6------6--2-------9--9--11-11-| 
Db-6------6--2--4----------------| x2 
Ab-4------4--0--4----7--7--9--9--| 
Eb--------------2----------------| 

Chorus: 
Eb----------------------------------| 
Bb----------------------------------| 
Gb-6------2-------------9-----5-----| 
Db-6-x16--2-x16--4------9-x8--5-x8--| x3 
Ab-4------0------4-x16--7-----3-----| 
Eb---------------2------------------| 



		  

Full key step upFull key step up
Half key step upHalf key step up
Half key step downHalf key step down
Full key step downFull key step down
hide glossary

See also:

tabs Blink 182 - First Date tabs Blink 182 - What's My Age Again? tabs Blink 182 - Dammit tabs Ramones - Blitzkrieg Bop tabs Green Day - Basket Case (ver. 2) tabs Blink 182 - Down
e-chords

Other versions:

tabs Matchbook Romance - Fiction tabs The XX - Fiction tabs Demon Hunter - Fiction Kingdom tabs Slayer - Fictional Reality (ver. 1) tabs Slayer - Fictional Reality (ver. 2)
auto scroll beats size up size down change color hide chords drawings
tab show chords e-chords YouTube Clip e-chords hide all tabs e-chords go to top tab

share