Mastodon

Once More Round The Sun

Mastodon

tabs

by  PAULLET3

save to print version add songbook text version e-mail correct tuner
chordsukulelecavacokeyboardtabbassdrumsharmonicaflute Guitar Pro
close

there isn't a video lesson for this song

chords

Once More Round The Sun

	  		Didn't tab the solo part. No solo, no homo (what) 
This is my 2nd ever submissin, my 1st was Asleep In The Deep from the same album. 
Line of "I"s = seperates parts. 
One I = mute the last note. 


-------------3-I-0-----0-----------------------------| 
---------------I---5-----0---------------------------| 
-----2-----4---I-----7-----5-------------------------| 
---4---4-5-----I-------------7-----------------------| 
---------------I-------------------------------------| 
-0-------------I-------------------------------------| 


--------------------------(3x)-| 
-------------------------------| 
-2--2-2-2-2-2-2----------------| 
-2--2-2-2-2-2-2-3--3-3-3-3-3-3-| 
-0--0-0-0-0-0-0-3--3-3-3-3-3-3-| 
----------------1--1-1-1-1-1-1-| 

I--(1st tail to the part above)-I--(2nd tail to the part above)-----| 
I-------------------------------I-----------------------------------| 
I-5--5-5-5-5-5-5-4--4-4-4-4-4-4-I-5--5-5-5-5-5-5-9--9-9-9-9-9-9-----| 
I-5--5-5-5-5-5-5-4--4-4-4-4-4-4-I-5--5-5-5-5-5-5-9--9-9-9-9-9-9-----| 
I-3--3-3-3-3-3-3-2--2-2-2-2-2-2-I-3--3-3-3-3-3-3-7--7-7-7-7-7-7-----| 
I-------------------------------I-----------------------------------| 


---------------------------------------------------------| 
---------------------------------------------------------| 
-2--2---4--4---5--5---7-9--------------9-----------------| 
-2--2---4--4---5--5---7-9-9--9-9-9-9-9-9-9--9-9-9-9-9-9--| 
-0--0-I-2--2-I-3--3-I-5-7-9--9-9-9-9-9-7-9--9-9-9-9-9-9--| 
--------------------------7--7-7-7-7-7---7--7-7-7-7-7-7--| 


----------------------------------------------------| 
----------------------------------------------------| 
----------------------------------------------------| 
-7--7---5--5---3--3---2--2--------------------------| 
-7--7-I-5--5-I-3--3-I-2--2--------------------------| 
-5--5---3--3---1--1---0--0--------------------------| 


lyrics (not by me): 

I'm a man and thats who i am 
and ill tell you that to your face 
I'm from the clouds and i shine like a moon 
and I'm here to fuck up the place 
make it last make it count 
one more round and ill see you outside 
heaven knows life can turn on a dime 
so lets enjoy our time 

they have got me hanging upside down, again 
once more round the sun we go again 

whats the meaning of life that we leave when 
we're caught up in the race 
my heart is spinning like a merry go round and i want you to take a ride 
i know its rough and i know that you are weary but its nice once you step inside 
roll me over and turn me around and lets make up on time 

they have got me hanging upside down again 
i just want to melt into the sun again 
once more round the sun we go again 

they have got me hanging upside down again 
i just want to melt into the sun again 
once more round the sun we go again 
		  

See also:

tabs Pantera - Cemetary Gates tabs Twisted Syster - Were not gonna take tabs Marilyn Manson - Disposable Teens tabs Dream Theater - Endless Sacrifice tabs Manowar - Brothers Of Metal tabs Alice Cooper - Poison
e-chords

Other versions:

tabs Mastodon - Once More Round The Sun
auto scroll beats size up size down change color hide chords drawings
tab show chords e-chords YouTube Clip e-chords hide all tabs e-chords go to top tab

share