Mastodon

Blasteroid

Mastodon

tabs

by  IRONPOWER4EVER

save to print version add songbook text version e-mail correct tuner
chordsukulelecavacokeyboardtabbassdrumsharmonicaflute Guitar Pro
close

there isn't a video lesson for this song

chords

Blasteroid

	  		

Riff  A  - 2x - Intro 

e|------------------------------------------------------------| 
B|------------------------------------------------------------| 
G|----9--7--7-----9--7--7-----9--7-----7----------------------| 
D|----------------------------------9-----9--7-----7----------| 
A|----------------------------------------------9-----9-7-5---| 
E|-0-----------0-----------0----------------------------------| 

e|-------------------------------------------7----------------| 
B|----------------------------------------7----10-7---10------| 
G|----9--7--7-----9--7--7-----9--7--7--9------------9---------| 
D|------------------------------------------------------------| 
A|------------------------------------------------------------| 
E|-0-----------0-----------0----------------------------------| 

Riff  B  - 2x - Verse
 
e|----------------------------------------------------------------| 
B|----------------------------------------------------------------| 
G|-------9--7------9---7--7--7-7--------9--7------9--11-11-11-11--| 
D|-------9--7------9---7--7--7-7--------9--7------9--11-11-11-11--| 
A|-------7--5------7---5--5--5-5--------7--5------7--9--9--9--9---| 
E|-0---0--------0-----------------0---0--------0------------------| 

e|---------------------------------------------------------------| 
B|---------------------------------------------------------------| 
G|-------11-9------11--9--9--9-9--------11-9------9--7--7--7-7---| 
D|-------11-9------11--9--9--9-9--------11-9------9--7--7--7-7---| 
A|-------9--7------9---7--7--7-7--------9--7------7--5--5--5-5---| 
E|-0---0--------0-----------------0---0--------0-----------------| 

Riff  C  - 2x - Pre-Chorus
 
e|---------------0--5--0------------------------| 
B|------------5-----------6--3-----1--3-----6---| 
G|------------------------------0--------0------| 
D|----------------------------------------------| 
A|-------0-3------------------------------------| 
E|-0---0----------------------------------------| 

e|----------------------------------------------| 
B|------------5-----3---------------------------| 
G|---------------2-----2--5--2-----2--5-----7---| 
D|------------------------------0--------0------| 
A|-------0-3------------------------------------| 
E|-0---0----------------------------------------| 

Riff  D  - 2x - Chorus
 
e|---------8--8--8--8---------------8--8--8--8------------8--8--8--8------| 
B|---------9--9--9--9---------------9--9--9--9------------9--9--9--9------| 
G|---------10-10-10-10--------------10-10-10-10-----------10-10-10-10-----| 
D|---------10-10-10-10--------------10-10-10-10-----------10-10-10-10-----| 
A|---------8--8--8--8---------------8--8--8--8------------8--8--8--8------| 
E|-0---0----------------0---0---0---------------0---0--0------------------| 

e|-----------------11--------------| 
B|----8-----11---------8-----------| 
G|-8-----8------8----------8-------| 
D|---------------------------------| 
A|---------------------------------| 
E|---------------------------------| 

e|---------8--8--8--8---------------8--8--8--8------------8--8--8--8------| 
B|---------9--9--9--9---------------9--9--9--9------------9--9--9--9------| 
G|---------10-10-10-10--------------10-10-10-10-----------10-10-10-10-----| 
D|---------10-10-10-10--------------10-10-10-10-----------10-10-10-10-----| 
A|---------8--8--8--8---------------8--8--8--8------------8--8--8--8------| 
E|-0---0----------------0---0---0---------------0---0--0------------------| 

e|------------11---------13--11----| 
B|-----12---------12---------------| 
G|-13------13---------13-----------| 
D|---------------------------------| 
A|---------------------------------| 
E|---------------------------------| 


Repeat Riff  B  2x 
Repeat Riff  C  2x 
Repeat Riff  D  2x 
Repeat Riff A 2x with open note at end  
		  

See also:

tabs Pantera - Cemetary Gates tabs Twisted Syster - Were not gonna take tabs Marilyn Manson - Disposable Teens tabs Dream Theater - Endless Sacrifice tabs Manowar - Brothers Of Metal tabs Alice Cooper - Poison
e-chords

Other versions:

tabs Mastodon - Blasteroid
auto scroll beats size up size down change color hide chords drawings
tab show chords e-chords YouTube Clip e-chords hide all tabs e-chords go to top tab

share