Mastodon

Aunt Lisa

Mastodon

tabs Expert expert

by  ABELAMIN

save to print version add songbook text version e-mail correct tuner
chordsukulelecavacokeyboardtabbassdrumsharmonicaflute Guitar Pro
close

there isn't a video lesson for this song

chords

Aunt Lisa

	  		
Tuning: D Standard (D G C F A d) 

                                   Intro 

|---3---5h6---------------------5-6-8-5/6---------12h13p12p0----0----0------| 
|-----4-------4---6/8-6-------------------8p7h8p7---------------------------| 
|---------------5-------7-6----------------------------------\7---\5--------| 
|-----------5---------------8-7---------------------------------------------| X 3 
|-0-------------------------------------------------------------------------| 
|---------------------------------------------------------------------------| 

|---3---5h6-------------------------| 
|-----4-------4---6/8-6-------------| 
|---------------5-------7-6---------| 
|-----------5---------------8-------| 
|-0---------------------------------| 
|-----------------------------------| 

                                   Verse 

|---------------------------------------1--1--1---4--4--4-----------------------| 
|-----0--------0--------0--------0------1--1--1---4--4--4-----------------------| 
|---5-0-5----5-0-5----5-0-5----5-0-5----x--x--x---x--x--x-----------------------| 
|---7-7-7----7-7-7----7-7-7----7-7-7----3--3--3---6--6--6-----------------------| X 2 
|-0--------0--------0--------0----------3--3--3---6--6--6-----------------------| 
|---------------------------------------1--1--1---4--4--4-----------------------| 

|---0-0-0----0-0-0----0-0-0----0-0-0----6--6--6---9--9--9-----------------------| 
|---6-5-6----6-5-6----6-5-6----6-5-6----6--6--6---9--9--9-----------------------| 
|---7-7-7----7-7-7----7-7-7----7-7-7----x--x--x---x--x--x-----------------------| 
|-0--------0--------0--------0----------8--8--8---11-11-11----------------------| X 2 
|---------------------------------------8--8--8---11-11-11----------------------| 
|---------------------------------------6--6--6---9--9--9-----------------------| 

            Chorus...? 

|-0-0-0---0-0-0---0-0-0---1-1-1---| 
|-x-x-x---x-x-x---x-x-x---1-1-1---| 
|-2-2-2---2-2-2---2-2-2---x-x-x---| 
|-2-2-2---2-2-2---2-2-2---3-3-3---| X 3 
|-0-0-0-0-0-0-0-0-0-0-0-0-3-3-3---| 
|-------------------------1-1-1---| 

|-0-0-0---0-0-0---0-0-0---1-1-1-----------| 
|-x-x-x---x-x-x---x-x-x---1-1-1-----------| 
|-2-2-2---2-2-2---2-2-2---x-x-x-----------| 
|-2-2-2---2-2-2---2-2-2---3-3-3---6-6-6---| 
|-0-0-0-0-0-0-0-0-0-0-0-0-3-3-3---6-6-6---| 
|-------------------------1-1-1-1-4-4-4---| 

    Bridge, I guess, I don't know 

|----------------------------------| 
|----------------------------------| 
|--------------0-------------------| 
|-----9---10-7-------9---5---0-----| X 4 
|-7-----7--------7-----7---7-------| 
|---5--------------5---------------| 

|----------------------------------| 
|----------------------------------| 
|---------------0------------------| 
|-----11---12-9-------11---7---0---| X 4 
|-9------9--------9------9---9-----| 
|---7---------------7--------------| 
            (Repeats) 


|-1--1--1---4--4--4----------------| 
|-1--1--1---4--4--4----------------| 
|-x--x--x---x--x--x----------------| 
|-3--3--3---6--6--6----------------| 
|-3--3--3---6--6--6----------------| 
|-1--1--1---4--4--4----------------| 


Verse, then Chorus again, then: 

|----------------------------------------------------------------------| 
|----------------------------------------------------------------------| 
|-9--7/9\7--7/9/10--9/10\9----5-4/5/11--9/11/12--11/12\4---------------| 
|-x--x/x\x--x/x/x---x/x-\x----x-x/x/x---x/x-/x---x-/x-\x---------------| X 3 
|-7--5/7\5--5/7/8---7/8-\7----3-2/3/9---7/9-/10--9-/10\2---------------| 
|----------------------------------------------------------------------| 
(This might be played without the higher octave, just do hammer-on/pull-off instead of slides) 


|------------| 
|------------| 
|------------| 
|-10-9--7--5-| 
|-x--x--x--x-| 
|-8--7--5--3-| 

Hey, ho, let's be cheerleaders 

|------------------------------------------------------------------| 
|------------------------------------------------------------------| 
|---10-10--9--9--------------9------7-/-9--9-----------------------| 
|---10-10--9--9--------------9------7-/-9--9-----------------------| 
|---8--8---7--7--------------7------5-/-7--7-----------------------| 
|-0-------------0-0-0-0-0-0----0-0-----------0-0-0-0-0-0-----------| 

|------------------------------------------------------------------| 
|------------------------------------------------------------------| 
|---10-10--9--9----------------------------------------------------| 
|---10-10--9--9-------------------------------0-3---2h3p2~---------| 
|---8--8---7--7-------------------0h1p0h1-3/5-----5----------------| 
|-0-------------0-0-0-0-0-0-0h1h3----------------------------------| 

|------------------------------------------------------------------| 
|------------------------------------------------------------------| 
|---10-10--9--9--------------9------7-/-9--9-----------------------| 
|---10-10--9--9--------------9------7-/-9--9-----------------------| 
|---8--8---7--7--------------7------5-/-7--7-----------------------| 
|-0-------------0-0-0-0-0-0----0-0-----------0-0-0-0-0-0-----------| 

|------------------------------------------------------------------| 
|------------------------------------------------------------------| 
|---10-10--9--9-------------5-5-5-5--8-8-8-8-8---------------------| 
|---10-10--9--9-------------x-x-x-x--x-x-x-x-x---------------------| 
|---8--8---7--7-------------3-3-3-3--6-6-6-6-6---------------------| 
|-0-------------0-0-0-0-0-0----------------------------------------| 

|------------------------------------------------------------------| 
|------------------------------------------------------------------| 
|---10-10--9--9--------------9------7-/-9--9-----------------------| 
|---10-10--9--9--------------9------7-/-9--9-----------------------| 
|---8--8---7--7--------------7------5-/-7--7-----------------------| 
|-0-------------0-0-0-0-0-0----0-0-----------0-0-0-0-0-0-----------| 

|------------------------------------------------------------------| 
|------------------------------------------------------------------| 
|---10-10--9--9----------------------------------------------------| 
|---10-10--9--9-------------------------------0-3---2h3p2~---------| 
|---8--8---7--7-------------------0h1p0h1-3/5-----5----------------| 
|-0-------------0-0-0-0-0-0-0h1h3----------------------------------| 

|------------------------------------------------------------------| 
|------------------------------------------------------------------| 
|---10-10--9--9--------------9------7-/-9--9-----------------------| 
|---10-10--9--9--------------9------7-/-9--9-----------------------| 
|---8--8---7--7--------------7------5-/-7--7-----------------------| 
|-0-------------0-0-0-0-0-0----0-0-----------0-0-0-0-0-0-----------| 

|------------------------------------------------------------------| 
|------------------------------------------------------------------| 
|----------------------------------------------------7-7---8-10-8\-| 
|-------------------0-3---2h3p2~---------7-5---5-7/9-----9---------| 
|-------0h1p0h1-3/5-----5----------0-5/7-----7---------------------| 
|-0h1h3------------------------------------------------------------| 

Probably some mistakes in there, but to my knowledge they haven't played it live or  
released a tab book yet, 
so feel free to provide corrections. 


************************************ 

| /   slide up 
| \   slide down 
| h   hammer-on 
| p   pull-off 
| ~   vibrato 
| +   harmonic 
| x   Mute note 
| b   Bend 
| pb  Pre-bend 
| br  Bend release 
| pbr Pre-bend release 
| brb Bend release bend 

************************************ 
		  

Full key step upFull key step up
Half key step upHalf key step up
Half key step downHalf key step down
Full key step downFull key step down
hide glossary

See also:

tabs Pantera - Cemetary Gates tabs Twisted Syster - Were not gonna take tabs Marilyn Manson - Disposable Teens tabs Dream Theater - Endless Sacrifice tabs Manowar - Brothers Of Metal tabs Alice Cooper - Poison
e-chords

Other versions:

tabs Mastodon - Aunt Lisa
auto scroll beats size up size down change color hide chords drawings
tab show chords e-chords YouTube Clip e-chords hide all tabs e-chords go to top tab

share