Massacre

Succubus

Massacre

tabs

by  ANDRSOUZA

save to print version add songbook text version e-mail correct tuner
chordsukulelecavacokeyboardtabbassdrumsharmonicaflute Guitar Pro
close

there isn't a video lesson for this song

chords

Succubus

	  		
Tuning D G C F A D 

Intro 

D|-----------------------------------------------------------------| 
A|-----------------------------------------------------------------| 
F|-----------------------------------------------------------------| 
C|-----------------------------------------------------------------| 
G|-------------------------------------------------2-2-2-2-1-1-1-1-| 
D|-1-1-1-1-1-1-1-1-1-1-1-1-1-1-1-1-2-2-2-2-2-2-2-2-----------------| 
   . . . . . . . . . . . . . . . . . . . . . . . . . . . . . . . .  

D|-----------------------------------------------------------------| 
A|-----------------------------------------------------------------| 
F|-----------------------------------------------------------------| 
C|-----------------------------------------------------------------| 
G|-------------------------------------------------2-2-2-2-1-1-1-1-| 
D|-1-1-1-1-1-1-1-1-1-1-1-1-1-1-1-1-2-2-2-2-2-2-2-2-----------------| 
   . . . . . . . . . . . . . . . . . . . . . . . . . . . . . . . .  

D|-----------------------------------------------------------------| 
A|-----------------------------------------------------------------| 
F|-----------------------------------------------------------------| 
C|-----------------------------------------------------------------| 
G|-------------------------------------------------2-2-2-2-1-1-1-1-| 
D|-1-1-1-1-1-1-1-1-1-1-1-1-1-1-1-1-2-2-2-2-2-2-2-2-----------------| 
   . . . . . . . . . . . . . . . . . . . . . . . . . . . . . . . .  

D|-----------------------------------------------------------------| 
A|-----------------------------------------------------------------| 
F|-----------------------------------------------------------------| 
C|-----------------------------------------------------------------| 
G|-------------------------------------------------2-2-2-2-1-1-1-1-| 
D|-1-1-1-1-1-1-1-1-1-1-1-1-1-1-1-1-2-2-2-2-2-2-2-2-----------------| 
   . . . . . . . . . . . . . . . . . . . . . . . . . . . . . . . .  

D|-----------------------------------------------------------------| 
A|-----------------------------------------------------------------| 
F|-----------------------------------------------------------------| 
C|-----------------------------------------------------------------| 
G|-------------------------------------------------2-2-2-2-1-1-1-1-| 
D|-1-1-1-1-1-1-1-1-1-1-1-1-1-1-1-1-2-2-2-2-2-2-2-2-----------------| 
   . . . . . . . . . . . . . . . . . . . . . . . . . . . . . . . .  

D|-----------------------------------------------------------------| 
A|-----------------------------------------------------------------| 
F|-----------------------------------------------------------------| 
C|-----------------------------------------------------------------| 
G|-------------------------------------------------2-2-2-2-1-1-1-1-| 
D|-1-1-1-1-1-1-1-1-1-1-1-1-1-1-1-1-2-2-2-2-2-2-2-2-----------------| 
   . . . . . . . . . . . . . . . . . . . . . . . . . . . . . . . .  

D|-----------------------------------------------------------------| 
A|-----------------------------------------------------------------| 
F|-----------------------------------------------------------------| 
C|-----------------------------------------------------------------| 
G|-------------------------------------------------2-2-2-2-1-1-1-1-| 
D|-1-1-1-1-1-1-1-1-1-1-1-1-1-1-1-1-2-2-2-2-2-2-2-2-----------------| 
   . . . . . . . . . . . . . . . . . . . . . . . . . . . . . . . .  

D|-----------------------------------------------------------------| 
A|-----------------------------------------------------------------| 
F|-----------------------------------------------------------------| 
C|-----------------------------------------------------------------| 
G|-------------------------------------------------2-2-2-2-1-1-1-1-| 
D|-1-1-1-1-1-1-1-1-1-1-1-1-1-1-1-1-2-2-2-2-2-2-2-2-----------------| 
   . . . . . . . . . . . . . . . . . . . . . . . . . . . . . . . .  

D|-----------------------------------------------------------------| 
A|-----------------------------------------------------------------| 
F|-----------------------------------------------------------------| 
C|-----------------------------------------------------------------| 
G|-------------------------------------------------2-2-2-2-1-1-1-1-| 
D|-1-1-1-1-1-1-1-1-1-1-1-1-1-1-1-1-2-2-2-2-2-2-2-2-----------------| 
   . . . . . . . . . . . . . . . . . . . . . . . . . . . . . . . .  

D|-----------------------------------------------------------------| 
A|-----------------------------------------------------------------| 
F|-----------------------------------------------------------------| 
C|-----------------------------------------------------------------| 
G|-------------------------------------------------2-2-2-2-1-1-1-1-| 
D|-1-1-1-1-1-1-1-1-1-1-1-1-1-1-1-1-2-2-2-2-2-2-2-2-----------------| 
   . . . . . . . . . . . . . . . . . . . . . . . . . . . . . . . .  

Verse 

D|-----------------------------------------------------------------| 
A|-----------------------------------------------------------------| 
F|-----------------------------------------------------------------| 
C|-----------------------------------------------------------------| 
G|-------------------------------------------------2-2-2-2-1-1-1-1-| 
D|-1-1-1-1-1-1-1-1-1-1-1-1-1-1-1-1-2-2-2-2-2-2-2-2-----------------| 
   . . . . . . . . . . . . . . . . . . . . . . . . . . . . . . . .  

D|-----------------------------------------------------------------| 
A|-----------------------------------------------------------------| 
F|-----------------------------------------------------------------| 
C|-----------------------------------------------------------------| 
G|-------------------------------------------------2-2-2-2-1-1-1-1-| 
D|-1-1-1-1-1-1-1-1-1-1-1-1-1-1-1-1-2-2-2-2-2-2-2-2-----------------| 
   . . . . . . . . . . . . . . . . . . . . . . . . . . . . . . . .  

D|-----------------------------------------------------------------| 
A|-----------------------------------------------------------------| 
F|-----------------------------------------------------------------| 
C|-----------------------------------------------------------------| 
G|-------------------------------------------------2-2-2-2-1-1-1-1-| 
D|-1-1-1-1-1-1-1-1-1-1-1-1-1-1-1-1-2-2-2-2-2-2-2-2-----------------| 
   . . . . . . . . . . . . . . . . . . . . . . . . . . . . . . . .  

D|-----------------------------------------------------------------| 
A|-----------------------------------------------------------------| 
F|-----------------------------------------------------------------| 
C|-----------------------------------------------------------------| 
G|-------------------------------------------------2-2-2-2-1-1-1-1-| 
D|-1-1-1-1-1-1-1-1-1-1-1-1-1-1-1-1-2-2-2-2-2-2-2-2-----------------| 
   . . . . . . . . . . . . . . . . . . . . . . . . . . . . . . . .  

Chorus 

D|-----------------------------------------------------------------| 
A|-----------------------------------------------------------------| 
F|-----------------------------------------------------------------| 
C|-----------------------------------------------------------------| 
G|-2-2-2-2-2-2-2-2-----------------2-2-2-2-----------------1-1-1-1-| 
D|-----------------1-1-1-1-1-1-1-1---------1-1-1-1-2-2-2-2---------| 
   . . . . . . . . . . . . . . . . . . . . . . . . . . . . . . . .  

D|-----------------------------------------------------------------| 
A|-----------------------------------------------------------------| 
F|-----------------------------------------------------------------| 
C|-----------------------------------------------------------------| 
G|-2-2-2-2-2-2-2-2-----------------2-2-2-2-----------------1-1-1-1-| 
D|-----------------1-1-1-1-1-1-1-1---------1-1-1-1-2-2-2-2---------| 
   . . . . . . . . . . . . . . . . . . . . . . . . . . . . . . . .  

D|-----------------------------------------------------------------| 
A|-----------------------------------------------------------------| 
F|-----------------------------------------------------------------| 
C|-----------------------------------------------------------------| 
G|-2-2-2-2-2-2-2-2-----------------2-2-2-2-----------------1-1-1-1-| 
D|-----------------1-1-1-1-1-1-1-1---------1-1-1-1-2-2-2-2---------| 
   . . . . . . . . . . . . . . . . . . . . . . . . . . . . . . . .  

D|-----------------------------------------------------------------| 
A|-----------------------------------------------------------------| 
F|-----------------------------------------------------------------| 
C|-----------------------------------------------------------------| 
G|-2-2-2-2-2-2-2-2-----------------2-2-2-2-----------------1-1-1-1-| 
D|-----------------1-1-1-1-1-1-1-1---------1-1-1-1-2-2-2-2---------| 
   . . . . . . . . . . . . . . . . . . . . . . . . . . . . . . . .  

D|-----------------------------------------------------------------| 
A|-----------------------------------------------------------------| 
F|-----------------------------------------------------------------| 
C|-----------------------------------------------------------------| 
G|-------------------------------------------------2-2-2-2-1-1-1-1-| 
D|-1-1-1-1-1-1-1-1-1-1-1-1-1-1-1-1-2-2-2-2-2-2-2-2-----------------| 
   . . . . . . . . . . . . . . . . . . . . . . . . . . . . . . . .  

D|-----------------------------------------------------------------| 
A|-----------------------------------------------------------------| 
F|-----------------------------------------------------------------| 
C|-----------------------------------------------------------------| 
G|-------------------------------------------------2-2-2-2-1-1-1-1-| 
D|-1-1-1-1-1-1-1-1-1-1-1-1-1-1-1-1-2-2-2-2-2-2-2-2-----------------| 
   . . . . . . . . . . . . . . . . . . . . . . . . . . . . . . . .  

D|-----------------------------------------------------------------| 
A|-----------------------------------------------------------------| 
F|-----------------------------------------------------------------| 
C|-----------------------------------------------------------------| 
G|-------------------------------------------------2-2-2-2-1-1-1-1-| 
D|-1-1-1-1-1-1-1-1-1-1-1-1-1-1-1-1-2-2-2-2-2-2-2-2-----------------| 
   . . . . . . . . . . . . . . . . . . . . . . . . . . . . . . . .  

D|-----------------------------------------------------------------| 
A|-----------------------------------------------------------------| 
F|-----------------------------------------------------------------| 
C|-----------------------------------------------------------------| 
G|-------------------------------------------------2-2-2-2-1-1-1-1-| 
D|-1-1-1-1-1-1-1-1-1-1-1-1-1-1-1-1-2-2-2-2-2-2-2-2-----------------| 
   . . . . . . . . . . . . . . . . . . . . . . . . . . . . . . . .  

Verse 

D|-----------------------------------------------------------------| 
A|-----------------------------------------------------------------| 
F|-----------------------------------------------------------------| 
C|-----------------------------------------------------------------| 
G|-------------------------------------------------2-2-2-2-1-1-1-1-| 
D|-1-1-1-1-1-1-1-1-1-1-1-1-1-1-1-1-2-2-2-2-2-2-2-2-----------------| 
   . . . . . . . . . . . . . . . . . . . . . . . . . . . . . . . .  

D|-----------------------------------------------------------------| 
A|-----------------------------------------------------------------| 
F|-----------------------------------------------------------------| 
C|-----------------------------------------------------------------| 
G|-------------------------------------------------2-2-2-2-1-1-1-1-| 
D|-1-1-1-1-1-1-1-1-1-1-1-1-1-1-1-1-2-2-2-2-2-2-2-2-----------------| 
   . . . . . . . . . . . . . . . . . . . . . . . . . . . . . . . .  

D|-----------------------------------------------------------------| 
A|-----------------------------------------------------------------| 
F|-----------------------------------------------------------------| 
C|-----------------------------------------------------------------| 
G|-------------------------------------------------2-2-2-2-1-1-1-1-| 
D|-1-1-1-1-1-1-1-1-1-1-1-1-1-1-1-1-2-2-2-2-2-2-2-2-----------------| 
   . . . . . . . . . . . . . . . . . . . . . . . . . . . . . . . .  

D|-----------------------------------------------------------------| 
A|-----------------------------------------------------------------| 
F|-----------------------------------------------------------------| 
C|-----------------------------------------------------------------| 
G|-------------------------------------------------2-2-2-2-1-1-1-1-| 
D|-1-1-1-1-1-1-1-1-1-1-1-1-1-1-1-1-2-2-2-2-2-2-2-2-----------------| 
   . . . . . . . . . . . . . . . . . . . . . . . . . . . . . . . .  

Chorus 

D|-----------------------------------------------------------------| 
A|-----------------------------------------------------------------| 
F|-----------------------------------------------------------------| 
C|-----------------------------------------------------------------| 
G|-2-2-2-2-2-2-2-2-----------------2-2-2-2-----------------1-1-1-1-| 
D|-----------------1-1-1-1-1-1-1-1---------1-1-1-1-2-2-2-2---------| 
   . . . . . . . . . . . . . . . . . . . . . . . . . . . . . . . .  

D|-----------------------------------------------------------------| 
A|-----------------------------------------------------------------| 
F|-----------------------------------------------------------------| 
C|-----------------------------------------------------------------| 
G|-2-2-2-2-2-2-2-2-----------------2-2-2-2-----------------1-1-1-1-| 
D|-----------------1-1-1-1-1-1-1-1---------1-1-1-1-2-2-2-2---------| 
   . . . . . . . . . . . . . . . . . . . . . . . . . . . . . . . .  

D|-----------------------------------------------------------------| 
A|-----------------------------------------------------------------| 
F|-----------------------------------------------------------------| 
C|-----------------------------------------------------------------| 
G|-2-2-2-2-2-2-2-2-----------------2-2-2-2-----------------1-1-1-1-| 
D|-----------------1-1-1-1-1-1-1-1---------1-1-1-1-2-2-2-2---------| 
   . . . . . . . . . . . . . . . . . . . . . . . . . . . . . . . .  

D|-----------------------------------------------------------------| 
A|-----------------------------------------------------------------| 
F|-----------------------------------------------------------------| 
C|-----------------------------------------------------------------| 
G|-2-2-2-2-2-2-2-2-----------------2-2-2-2-----------------1-1-1-1-| 
D|-----------------1-1-1-1-1-1-1-1---------1-1-1-1-2-2-2-2---------| 
   . . . . . . . . . . . . . . . . . . . . . . . . . . . . . . . .  

D|--------------------------------------------------------------| 
A|--------------------------------------------------------------| 
F|--------------------------------------------------------------| 
C|-----------------4-------4------------------------------------| 
G|-3-------3-------2--2-2--2--2-2--4-------4-------5-------5--4-| 
D|-1--1-1--1--1-1------------------2--2-2--2--2-2--3--3-3--3--2-| 
      . .     . .     . .     . .     . .     . .     . . 

D|--------------------------------------------------------------| 
A|--------------------------------------------------------------| 
F|--------------------------------------------------------------| 
C|-----------------4-------4------------------------------------| 
G|-3-------3-------2--2-2--2--2-2--4-------4-------5-------5--4-| 
D|-1--1-1--1--1-1------------------2--2-2--2--2-2--3--3-3--3--2-| 
      . .     . .     . .     . .     . .     . .     . . 

D|--------------------------------------------------------------| 
A|--------------------------------------------------------------| 
F|--------------------------------------------------------------| 
C|-----------------4-------4------------------------------------| 
G|-3-------3-------2--2-2--2--2-2--4-------4-------5-------5--4-| 
D|-1--1-1--1--1-1------------------2--2-2--2--2-2--3--3-3--3--2-| 
      . .     . .     . .     . .     . .     . .     . . 

D|--------------------------------------------------------------| 
A|--------------------------------------------------------------| 
F|--------------------------------------------------------------| 
C|-----------------4-------4------------------------------------| 
G|-3-------3-------2--2-2--2--2-2--4-------4-------5-------5--4-| 
D|-1--1-1--1--1-1------------------2--2-2--2--2-2--3--3-3--3--2-| 
      . .     . .     . .     . .     . .     . .     . . 

D|--------------------------------------------------------------| 
A|--------------------------------------------------------------| 
F|--------------------------------------------------------------| 
C|-----------------4-------4------------------------------------| 
G|-3-------3-------2--2-2--2--2-2--4-------4-------5-------5--4-| 
D|-1--1-1--1--1-1------------------2--2-2--2--2-2--3--3-3--3--2-| 
      . .     . .     . .     . .     . .     . .     . . 

D|-----------------------------------------------------------------| 
A|-----------------------------------------------------------------| 
F|-----------------------------------------------------------------| 
C|-----------------4-------4---------------------------------------| 
G|-3-------3-------2--2-2--2--2-2--4-------4-------5-------5--4--3-| 
D|-1--1-1--1--1-1------------------2--2-2--2--2-2--3--3-3--3--2--1-| 
      . .     . .     . .     . .     . .     . .     . . 

D|------------------------------------------------------------------| 
A|------------------------------------------------------------------| 
F|------------------------------------------------------------------| 
C|------------------------------------------------------------------| 
G|-3---------3---------3---------4--3---------3---------3---------2-| 
D|-1--1-1-1--1--1-1-1--1--1-1-1--2--1--1-1-1--1--1-1-1--1--1-1-1--0-| 
      . . .     . . .     . . .        . . .     . . .     . . . 

D|------------------------------------------------------------------| 
A|------------------------------------------------------------------| 
F|------------------------------------------------------------------| 
C|------------------------------------------------------------------| 
G|-3---------3---------3---------4--3---------3---------3---------2-| 
D|-1--1-1-1--1--1-1-1--1--1-1-1--2--1--1-1-1--1--1-1-1--1--1-1-1--0-| 
      . . .     . . .     . . .        . . .     . . .     . . . 

D|------------------------------------------------------------------| 
A|------------------------------------------------------------------| 
F|------------------------------------------------------------------| 
C|------------------------------------------------------------------| 
G|-3---------3---------3---------4--3---------3---------3---------2-| 
D|-1--1-1-1--1--1-1-1--1--1-1-1--2--1--1-1-1--1--1-1-1--1--1-1-1--0-| 
      . . .     . . .     . . .        . . .     . . .     . . . 

D|------------------------------------------------------------------| 
A|------------------------------------------------------------------| 
F|------------------------------------------------------------------| 
C|------------------------------------------------------------------| 
G|-3---------3---------3---------4--3---------3---------3---------2-| 
D|-1--1-1-1--1--1-1-1--1--1-1-1--2--1--1-1-1--1--1-1-1--1--1-1-1--0-| 
      . . .     . . .     . . .        . . .     . . .     . . . 

D|------------------------------------------------------------------| 
A|------------------------------------------------------------------| 
F|------------------------------------------------------------------| 
C|------------------------------------------------------------------| 
G|-3---------3---------3---------4--3---------3---------3---------2-| 
D|-1--1-1-1--1--1-1-1--1--1-1-1--2--1--1-1-1--1--1-1-1--1--1-1-1--0-| 
      . . .     . . .     . . .        . . .     . . .     . . . 

D|------------------------------------------------------------------| 
A|------------------------------------------------------------------| 
F|------------------------------------------------------------------| 
C|------------------------------------------------------------------| 
G|-3---------3---------3---------4--3---------3---------3---------2-| 
D|-1--1-1-1--1--1-1-1--1--1-1-1--2--1--1-1-1--1--1-1-1--1--1-1-1--0-| 
      . . .     . . .     . . .        . . .     . . .     . . . 

D|-----------------------------------------------------------------| 
A|-----------------------------------------------------------------| 
F|-----------------------------------------------------------------| 
C|-----------------------------------------------------------------| 
G|-------------------------------------------------2-2-2-2-1-1-1-1-| 
D|-1-1-1-1-1-1-1-1-1-1-1-1-1-1-1-1-2-2-2-2-2-2-2-2-----------------| 
   . . . . . . . . . . . . . . . . . . . . . . . . . . . . . . . .  

D|-----------------------------------------------------------------| 
A|-----------------------------------------------------------------| 
F|-----------------------------------------------------------------| 
C|-----------------------------------------------------------------| 
G|-------------------------------------------------2-2-2-2-1-1-1-1-| 
D|-1-1-1-1-1-1-1-1-1-1-1-1-1-1-1-1-2-2-2-2-2-2-2-2-----------------| 
   . . . . . . . . . . . . . . . . . . . . . . . . . . . . . . . .  

D|-----------------------------------------------------------------| 
A|-----------------------------------------------------------------| 
F|-----------------------------------------------------------------| 
C|-----------------------------------------------------------------| 
G|-------------------------------------------------2-2-2-2-1-1-1-1-| 
D|-1-1-1-1-1-1-1-1-1-1-1-1-1-1-1-1-2-2-2-2-2-2-2-2-----------------| 
   . . . . . . . . . . . . . . . . . . . . . . . . . . . . . . . .  

D|-----------------------------------------------------------------| 
A|-----------------------------------------------------------------| 
F|-----------------------------------------------------------------| 
C|-----------------------------------------------------------------| 
G|-------------------------------------------------2-2-2-2-1-1-1-1-| 
D|-1-1-1-1-1-1-1-1-1-1-1-1-1-1-1-1-2-2-2-2-2-2-2-2-----------------| 
   . . . . . . . . . . . . . . . . . . . . . . . . . . . . . . . .  

D|-----------------------------------------------------------------| 
A|-----------------------------------------------------------------| 
F|-----------------------------------------------------------------| 
C|-----------------------------------------------------------------| 
G|-------------------------------------------------2-2-2-2-1-1-1-1-| 
D|-1-1-1-1-1-1-1-1-1-1-1-1-1-1-1-1-2-2-2-2-2-2-2-2-----------------| 
   . . . . . . . . . . . . . . . . . . . . . . . . . . . . . . . .  

D|-----------------------------------------------------------------| 
A|-----------------------------------------------------------------| 
F|-----------------------------------------------------------------| 
C|-----------------------------------------------------------------| 
G|-------------------------------------------------2-2-2-2-1-1-1-1-| 
D|-1-1-1-1-1-1-1-1-1-1-1-1-1-1-1-1-2-2-2-2-2-2-2-2-----------------| 
   . . . . . . . . . . . . . . . . . . . . . . . . . . . . . . . .  

D|-----------------------------------------------------------------| 
A|-----------------------------------------------------------------| 
F|-----------------------------------------------------------------| 
C|-----------------------------------------------------------------| 
G|-------------------------------------------------2-2-2-2-1-1-1-1-| 
D|-1-1-1-1-1-1-1-1-1-1-1-1-1-1-1-1-2-2-2-2-2-2-2-2-----------------| 
   . . . . . . . . . . . . . . . . . . . . . . . . . . . . . . . .  

D|-----------------------------------------------------------------| 
A|-----------------------------------------------------------------| 
F|-----------------------------------------------------------------| 
C|-----------------------------------------------------------------| 
G|-------------------------------------------------2-2-2-2-1-1-1-1-| 
D|-1-1-1-1-1-1-1-1-1-1-1-1-1-1-1-1-2-2-2-2-2-2-2-2-----------------| 
   . . . . . . . . . . . . . . . . . . . . . . . . . . . . . . . .  

D|-----------------------------------------------------------------| 
A|-----------------------------------------------------------------| 
F|-----------------------------------------------------------------| 
C|-----------------------------------------------------------------| 
G|-------------------------------------------------2-2-2-2-1-1-1-1-| 
D|-1-1-1-1-1-1-1-1-1-1-1-1-1-1-1-1-2-2-2-2-2-2-2-2-----------------| 
   . . . . . . . . . . . . . . . . . . . . . . . . . . . . . . . .  

D|-----------------------------------------------------------------| 
A|-----------------------------------------------------------------| 
F|-----------------------------------------------------------------| 
C|-----------------------------------------------------------------| 
G|-------------------------------------------------2-2-2-2-1-1-1-1-| 
D|-1-1-1-1-1-1-1-1-1-1-1-1-1-1-1-1-2-2-2-2-2-2-2-2-----------------| 
   . . . . . . . . . . . . . . . . . . . . . . . . . . . . . . . .  

D|-----------------------------------------------------------------| 
A|-----------------------------------------------------------------| 
F|-----------------------------------------------------------------| 
C|-----------------------------------------------------------------| 
G|-------------------------------------------------2-2-2-2-1-1-1-1-| 
D|-1-1-1-1-1-1-1-1-1-1-1-1-1-1-1-1-2-2-2-2-2-2-2-2-----------------| 
   . . . . . . . . . . . . . . . . . . . . . . . . . . . . . . . .  

D|-----------------------------------------------------------------| 
A|-----------------------------------------------------------------| 
F|-----------------------------------------------------------------| 
C|-----------------------------------------------------------------| 
G|-------------------------------------------------2-2-2-2-1-1-1-1-| 
D|-1-1-1-1-1-1-1-1-1-1-1-1-1-1-1-1-2-2-2-2-2-2-2-2-----------------| 
   . . . . . . . . . . . . . . . . . . . . . . . . . . . . . . . .  

D|-----------------------------------------------------------------| 
A|-----------------------------------------------------------------| 
F|-----------------------------------------------------------------| 
C|-----------------------------------------------------------------| 
G|-------------------------------------------------2-2-2-2-1-1-1-1-| 
D|-1-1-1-1-1-1-1-1-1-1-1-1-1-1-1-1-2-2-2-2-2-2-2-2-----------------| 
   . . . . . . . . . . . . . . . . . . . . . . . . . . . . . . . .  

D|-----------------------------------------------------------------| 
A|-----------------------------------------------------------------| 
F|-----------------------------------------------------------------| 
C|-----------------------------------------------------------------| 
G|-------------------------------------------------2-2-2-2-1-1-1-1-| 
D|-1-1-1-1-1-1-1-1-1-1-1-1-1-1-1-1-2-2-2-2-2-2-2-2-----------------| 
   . . . . . . . . . . . . . . . . . . . . . . . . . . . . . . . .  

D|-----------------------------------------------------------------| 
A|-----------------------------------------------------------------| 
F|-----------------------------------------------------------------| 
C|-----------------------------------------------------------------| 
G|-------------------------------------------------2-2-2-2-1-1-1-1-| 
D|-1-1-1-1-1-1-1-1-1-1-1-1-1-1-1-1-2-2-2-2-2-2-2-2-----------------| 
   . . . . . . . . . . . . . . . . . . . . . . . . . . . . . . . .  

D|-----------------------------------------------------------------| 
A|-----------------------------------------------------------------| 
F|-----------------------------------------------------------------| 
C|-----------------------------------------------------------------| 
G|-------------------------------------------------2-2-2-2-1-1-1-1-| 
D|-1-1-1-1-1-1-1-1-1-1-1-1-1-1-1-1-2-2-2-2-2-2-2-2-----------------| 
   . . . . . . . . . . . . . . . . . . . . . . . . . . . . . . . .  

Verse 

D|-----------------------------------------------------------------| 
A|-----------------------------------------------------------------| 
F|-----------------------------------------------------------------| 
C|-----------------------------------------------------------------| 
G|-------------------------------------------------2-2-2-2-1-1-1-1-| 
D|-1-1-1-1-1-1-1-1-1-1-1-1-1-1-1-1-2-2-2-2-2-2-2-2-----------------| 
   . . . . . . . . . . . . . . . . . . . . . . . . . . . . . . . .  

D|-----------------------------------------------------------------| 
A|-----------------------------------------------------------------| 
F|-----------------------------------------------------------------| 
C|-----------------------------------------------------------------| 
G|-------------------------------------------------2-2-2-2-1-1-1-1-| 
D|-1-1-1-1-1-1-1-1-1-1-1-1-1-1-1-1-2-2-2-2-2-2-2-2-----------------| 
   . . . . . . . . . . . . . . . . . . . . . . . . . . . . . . . .  

D|-----------------------------------------------------------------| 
A|-----------------------------------------------------------------| 
F|-----------------------------------------------------------------| 
C|-----------------------------------------------------------------| 
G|-------------------------------------------------2-2-2-2-1-1-1-1-| 
D|-1-1-1-1-1-1-1-1-1-1-1-1-1-1-1-1-2-2-2-2-2-2-2-2-----------------| 
   . . . . . . . . . . . . . . . . . . . . . . . . . . . . . . . .  

D|-----------------------------------------------------------------| 
A|-----------------------------------------------------------------| 
F|-----------------------------------------------------------------| 
C|-----------------------------------------------------------------| 
G|-------------------------------------------------2-2-2-2-1-1-1-1-| 
D|-1-1-1-1-1-1-1-1-1-1-1-1-1-1-1-1-2-2-2-2-2-2-2-2-----------------| 
   . . . . . . . . . . . . . . . . . . . . . . . . . . . . . . . .  

D|-----------------------------------------------------------------| 
A|-----------------------------------------------------------------| 
F|-----------------------------------------------------------------| 
C|-----------------------------------------------------------------| 
G|-------------------------------------------------2-2-2-2-1-1-1-1-| 
D|-1-1-1-1-1-1-1-1-1-1-1-1-1-1-1-1-2-2-2-2-2-2-2-2-----------------| 
   . . . . . . . . . . . . . . . . . . . . . . . . . . . . . . . .  

Chorus 

D|-----------------------------------------------------------------| 
A|-----------------------------------------------------------------| 
F|-----------------------------------------------------------------| 
C|-----------------------------------------------------------------| 
G|-2-2-2-2-2-2-2-2-----------------2-2-2-2-----------------1-1-1-1-| 
D|-----------------1-1-1-1-1-1-1-1---------1-1-1-1-2-2-2-2---------| 
   . . . . . . . . . . . . . . . . . . . . . . . . . . . . . . . .  

D|-----------------------------------------------------------------| 
A|-----------------------------------------------------------------| 
F|-----------------------------------------------------------------| 
C|-----------------------------------------------------------------| 
G|-2-2-2-2-2-2-2-2-----------------2-2-2-2-----------------1-1-1-1-| 
D|-----------------1-1-1-1-1-1-1-1---------1-1-1-1-2-2-2-2---------| 
   . . . . . . . . . . . . . . . . . . . . . . . . . . . . . . . .  

D|-----------------------------------------------------------------| 
A|-----------------------------------------------------------------| 
F|-----------------------------------------------------------------| 
C|-----------------------------------------------------------------| 
G|-2-2-2-2-2-2-2-2-----------------2-2-2-2-----------------1-1-1-1-| 
D|-----------------1-1-1-1-1-1-1-1---------1-1-1-1-2-2-2-2---------| 
   . . . . . . . . . . . . . . . . . . . . . . . . . . . . . . . .  

D|--------------------------------------------------------------------| 
A|--------------------------------------------------------------------| 
F|--------------------------------------------------------------------| 
C|--------------------------------------------------------------------| 
G|-2-2-2-2-2-2-2-2-----------------2-2-2-2-----------------1-1-1-1--2-| 
D|-----------------1-1-1-1-1-1-1-1---------1-1-1-1-2-2-2-2----------0-| 
   . . . . . . . . . . . . . . . . . . . . . . . . . . . . . . . .  

************************************ 

| .   palm mute 
| x   Dead note 
| g   Grace note 
| (n) Ghost note 
| h   Hammer-on 
| p   Pull-off 
| r   Release 
| >   Accented note 
| t   Tapping 
| b   Bend 
| br  Bend release 
| pb  Pre-bend 
| pbr Pre-bend release 
| /   Slide up 
| \   Slide down 
| ~   Vibrato 
| s   Slap 
| P   Pop 
| TR  Trill 
| N   Tremolo 

************************************ 
		  

See also:

tabs Tequila Baby - Coma tabs CPM 22 - Dias atrás tabs Noção de Nada - Impar tabs Forfun - Seu Namorado é um bundão tabs Tequila Baby - Lírios tabs CPM 22 - Tarde de Outubro
e-chords

Other versions:

tabs Massacre - Succubus
auto scroll beats size up size down change color hide chords drawings
tab show chords e-chords YouTube Clip e-chords hide all tabs e-chords go to top tab

share