Massacre

Biohazard

Massacre

tabs

by  JOV-CORREA

save to print version add songbook text version e-mail correct tuner
chordsukulelecavacokeyboardtabbassdrumsharmonicaflute Guitar Pro
close

there isn't a video lesson for this song

chords

Biohazard

	  		

Riff A (6x in the beginning of the song, but later it only repeats 4x) 

              3x           in the  last part 
e|-----------------------|----------------| 
B|-----------------------|----------------| 
G|-----------------------|----------------| 
D|-----------------------|----------------| 
A|-----------------5\3-3-|-5-3-8----------| 
E|0000000000000000-3\1-1-|-3\1-6----------| 
  p.m ------------| 

Riff B (4x) 

e|----------------------------------------| 
B|----------------------------------------| 
G|----------------------------------------| 
D|7-------998----9------------------------| 
A|5-6-7/6-776----7---10-10-9-8------------| 
E|--4-5/4-----00---0-8--8--7-6------------| 

Riff C (4x each part) 

e|----------------------------------------| 
B|----------------------------------------| 
G|----------------------------------------| 
D|----------------4/3\5--------------5\6/5| 
A|4---------------2/1\3333333333333333\4/3| 
E|2222222222222222------------------------| 
  p.m -----------|     pm -----------| 

e|----------------------------------------| 
B|----------------------------------------| 
G|----------------------------------------| 
D|----------------6/5\7--------------7\8/7| 
A|6---------------4/3\5555555555555555\6/5| 
E|4444444444444444------------------------| 
  p.m -----------|     pm -----------| 

Riff D (4x) 

e|----------------------------------------| 
B|----------------------------------------| 
G|----------------------------------------| 
D|----------6-----------------------------| 
A|2------5--4--7------3--4----------------| 
E|0------3-----5------1--2----------------| 

e|----------------------------------------| 
B|----------------------------------------| 
G|----------------------------------------| 
D|----------6------------3---------------- 
A|2------5--4--7------3--1---------------- 
E|0------3-----5------1------------------- 

Riff E (4x) 

e|----------------------------------------| 
B|----------------------------------------| 
G|----------------------------------------| 
D|----------------------------------------| 
A|----------4"----------------------------| 
E|0"-----3"----5"-----1"-2"---------------| 
  p.m the whole part 

e|----------------------------------------| 
B|----------------------------------------| 
G|----------------------------------------| 
D|----------------------------------------| 
A|----------4"----------1"----------------| 
E|0"-----3"----5"-----1"------------------| 
  p.m. the whole part 

Riff F (repeats and starts fading out) 

e|----------------------------------------| 
B|----------------------------------------| 
G|----------------------------------------| 
D|---------4---3--------7\6---------------| 
A|2-2-2--2-2-2-1-5--7-6-5\4---------------| 
E|0-0-0--0---0---3--5-4-------------------| 
   p.m  p.m p.m 

Listen to the song to get its structure. 
		  

Full key step upFull key step up
Half key step upHalf key step up
Half key step downHalf key step down
Full key step downFull key step down
hide glossary

See also:

tabs Tequila Baby - Coma tabs CPM 22 - Dias atrás tabs Noção de Nada - Impar tabs Forfun - Seu Namorado é um bundão tabs Tequila Baby - Lírios tabs CPM 22 - Tarde de Outubro
e-chords

Other versions:

tabs Massacre - Biohazard
auto scroll beats size up size down change color hide chords drawings
tab show chords e-chords YouTube Clip e-chords hide all tabs e-chords go to top tab

share